Stop Censorship
 
 

 
 1-9 a b c d e f g h i j k l m n o p q r s t u v w x y z
   Guns N Roses - Hair Of The Dog Tab    

HAIR OF THE DOG
GUNS N ROSES / NAZARETH

Written by Nazareth
From the album: The Spaghetti Incident
Tabbed by: THEO (AKA imMrNutty) on 3rd AUGUST 2001


* * Repeat Once Unless Stated
sl Slide
H Hammer On



Main Riff x6
E||-----------------------------------|
B||*---------------------------------*|
G||-----------------------------------|
D||---2---------------2--5--2-----2---|
A||*--2-------H----2-----------5-----*|
E||---0--0--3---4---------------------|


Main Riff (Altered) x2
E||-----------------------------------|
B||*---------------------------------*|
G||---2---------------2--5--2-----2---|
D||---2-------H----2-----------5------|
A||*--0--0--3---4--------------------*|
E||-----------------------------------|

Main Riff x2

Chorus x2
E||-------------------------------|
B||-----------------------sl------|
G||--------------------7-7--9-9---|
D||---2--5--7----2-----7-7--9-9---|
A||---2--5--7----2-----5-5--7-7---|
E||---0--3--5----0----------------|

Then Repeat:

Main Riff x6
Main Riff (Altered) x2
Main Riff x2
Chorus x2
Main Riff x2
Solo
Main Riff x2
Chorus x2
Outro Solo