Stop Censorship
 
 

 
 1-9 a b c d e f g h i j k l m n o p q r s t u v w x y z
   Guns N Roses - Jumping Jack Flash Tab    

JUMPING JACK FLASH
GUNS N ROSES / ROLLING STONES

Written by Jagger/Richards
From: Unreleased Demo
Tabbed by: THEO (AKA imMrNutty) on 26th AUGUST 2001

I Think this is just about the same as the original but the
guns version is faster and louder.


* * Repeat Once Unless Stated


Intro x3
E||---------------------|
B||*-------------------*|
G||---4-4-4-4---2-2-2---|
D||---4-4-4-4-2-2-2-2---|
A||*--2-2-2-2-2-0-0-0--*|
E||-----------0---------|

Fill x3
E||-----------|
B||*---------*|
G||---4-4-4---|
D||---4-4-4---|
A||*--2-2-2--*|
E||-----------|

Main Riff x6
E||------------------------------|
B||*----------------------------*|
G||---4-4------------------------|
D||---4-4------2------2----------|
A||*--2-2--2-4----2-4----4-2-0--*|
E||------------------------------|

Chorus
E||--2--------------|--2------------------|
B||--3--------------|--3------------------|
G||--2---2-------4--|--2---2-------4-4-4--|
D||--0---2---2---4--|--0---2---2---4-4-4--|
A||------0---2---2--|------0---2---2-2-2--|
E||----------0------|----------0----------|

Then Play:

Fill x3
Main Riff x6
Chorus
Fill x3
Intro x3
Fill x3
Main Riff x6
Chorus
Fill x3
Intro to Fade.