Stop Censorship
 
 

 
 1-9 a b c d e f g h i j k l m n o p q r s t u v w x y z
   Guns N Roses - Knockin On Heavens Door Tab    

KNOCKIN ON HEAVENS DOOR

tune your guitar down by a half step

intro
E-3---3--------------2-0------------------------0----------------------------
B-3-----3---3------3-----3---3-----------1--------------1--------------------
G-0-------0------2---------2----0------0---0----------0---0-0------0---------
D-0------------0----------------0-2----------2------2-------0-2--------------
A------------------------------------3-----------------------H---3-----------
E-3--------------------------------------------------------------------------

chords for the chorus:
G D C

verses
E-3--------------2-------2-0--------0-----H-------0----------------------|
B-3---3-------3--3-------3-------0--1----0-1-------------1---------------|
G-0---0-----0----2----2-------2-----2--2-----2---------2---2------0---0--|
D-0---0-----0----0----0-------------2----------2-----2-------0-2----2----|
A-----------------------------------0-------------------------H----------|
E-3----------------------------------------------------------------------|

1st solo
E------------------------------------------------------
B----^^---P---------15--^------~~~~~~~~~~~~------------
G-12-14-14-12-14-------14-12-12-------------------12---
D------------------------------------------13/14-------
A------------------------------------------------------
E------------------------------------------------------

E---------------P------------P--------P------------------15----
B15/17---15---13-12-13/15--13-12---13--12----------12-13----13-
G-------------------------------------------~~~~~~~------------
D-----------------------------------------14-------------------
A--------------------------------------------------------------
E--------------------------------------------------------------

E--~~~-------15-17--17--17--17--15-----------------------------
B12---15/17----------------------------------------------------
G--------------------------------------------------------------
D--------------------------------------------------------------
A--------------------------------------------------------------
E--------------------------------------------------------------

E--20-20-19-20--19-20--20-20-20---~~~~~----------------------------------
B-------P-----------------------17------^^----^^-------------------------
G---------------------------------------19-19-19-19-^-----^--------------
D---------------------------------------------------19-19-19-19----------
A---------------------------------------------------------------17--17---
E------------------------------------------------------------------------

2nd solo
E-------------------------------------------------------|
B--19b~~~~~~~r-19---19brp17-19-1717----20-17--20-17br---|
G-------------------------------------------------------|
D-------------------------------------------------------|
A-------------------------------------------------------|
E-------------------------------------------------------|

E----------------------------------------16---18b-18p16-|
B-1517--1517--------1517---------------13--16-----------|
G-----------------------------------/13-----------------|
D-----17----19br1719----19br19br17----------------------|
A-------------------------------------------------------|
E-------------------------------------------------------|

E-1618P161620192022b--20192022b--20192022b-22b22b-------|
B------------------------------------------------2022b--|
G-------------------------------------------------------|
D-------------------------------------------------------|
A-------------------------------------------------------|
E-------------------------------------------------------|

E-------------------------------------------------------|
B--2022br-202222b-202220--20~~---2019----19br-17191717--|
G-------------------------------------------------------|
D-------------------------------------------------------|
A-------------------------------------------------------|
E-------------------------------------------------------|

E-------------------------------------------------------|
B-2017--17~~15~~12~~~~~~--------------------------------|
G------------------------12~--11~---11br-9~---7---5/4---|
D----------------------------------------------------5--|
A-------------------------------------------------------|
E-------------------------------------------------------|