Stop Censorship
 
 

 
 1-9 a b c d e f g h i j k l m n o p q r s t u v w x y z
   Guns N Roses - Live And Let Die Tab    

LIVE AND LET DIE
tune your guitar down by a half step

G B
when you were young

C D
and your heart was an open book

G B C D
you used to say live and let live (you no you did x3)

G B Am
but if this ever changin world in which we live in

D
makes you give in and cry

fill
E----0---1----
B-3-----------
G-------------
D-------------
A-------------
E-------------

G C C# G
live and let die x3


E----------------------------------------------------------------------------------
B----------------------------------------------------------------------------------
G-12--14--15----7--9--10----5--3-----------12--14--15----7--9--10----5----3--------
D-12--14--15----7--9--10----5--3-----------12--14--15----7--9--10----5----3--------
A----------------------------------------------------------------------------------
E----------------------------------------------------------------------------------

pm...............................................
E----------------------------------------------------------------------------------
B----------------------------------------------------------------------------------
G----------------------------------------------------------------------------------
D-55555555555555555555555555555555555555555555555----------------------------------
A-55555555555555555555555555555555555555555555555----------------------------------
E-33333333333333333333333333333333333333333333333----------------------------------

E-------------------------------------------------------------------------------
B-------------------------------------------------------------------------------
G-15---11--13---9--11------15--11--13---9---11------15--11--13--9-10--12--14----
D-------------------------------------------------------------------------------
A-13---9---11---7---9------13---9---11---7---9------13---9---11---7--8--10--12--
E-------------------------------------------------------------------------------

C
what does it matta too ya

G
when ya gotta job ta go to

D
ya gotta do it well

E F
you gotta give the other fella hell!!!

E-----------------------------------------------------------------------10--12--13-
B-3--3--x-x--3--3--x-x-x--3----3--3--x-x--3--3--x-x-x--3----3--3-------10----------
G-3--3--x-x--3--3--x-x-x--3----4--4--x-x--4--4--x-x-x--4----2--2-------------------
D-3--3--x-x--3--3--x-x-x--3----5--5--x-x--5--5--x-x-x--5----0--0-------------------
A----------------------------------------------------------------------------------
E----------------------------------------------------------------------------------

E----------
B----------
G-9----10--
D-9----10--
A-7----8---
E-7----8---

solo
E-7---------10---12b/r---10--8--7--8------------
B-------------------------------------10b/r-----
G--------------------------------------------7--
D-----------------------------------------------
A-----------------------------------------------
E-----------------------------------------------