Stop Censorship
 
 

 
 1-9 a b c d e f g h i j k l m n o p q r s t u v w x y z
   Guns N Roses - Nightrain Tab    

Band: Guns N Roses
Song Name: Nightrain
Tabber: Joey

Intro:

|--------------3--3-2p0-------0----0--0-0--0---------------------------------
|---------------------0--75--5----5--5-3--31-1-----/3--31--1-0-1-0--------
|---2-----------------------------------------------------------------2--0-2-
|---2------------------------------------------------------------------------
|---0------------------------------------------------------------------------
|----------------------------------------------------------------------------
|
|---------------------------------------------1-----3------------------------
|-------------8--8--7----7---5----5--5-3--3---1-----3---3-3---3-3-3----------
|-------------9--9--7----7---5----5--5-4--4---2-----0---0-4---5-4-5--2--2-2--
|---7---------7--7--7----7---5----5--5-5--5-3-----3/5---5-5---5-5-5--2--0-2--
|---7-----0---------------------------------------------------------------0--
|---5------------------------------------------------------------------------


First verse:

-----------------------------------------------------------------------------------
-----------------------------------------------------------------------------------
---------2-------2-------2--2--------2---------2---2-----------------2------2----2-
---------2-------2-------2--2--------2---------2---2-----------------2------2----2-
---------0-------0-------0--0--------0---------0---0-----------3b----0------0----0-
-------------3------------------0-3-----------------------0-3----------0-3-----3---

Look out! Well I`m a west coast struttin`, one bad mother, got a rattlesnake suitcase

----------------------------------------------------
----------------------------------------------------
------2-----------2------2---2---------------2----2-
------2-----------2------2---2---------------2----2-
------0-----------0------0---0---------------0----0-
-------------0-3----------------------0--3----------

under my arm. Said I`m a mean machine, been drinkin` gasoline

------------------------------------
------------------------------------
-------------------2---------2----2-
-------------------2---------2----2-
--------3-b--------0---------0----0-
-0--3------------------0--3-----3---

, and honey you can make my motor hum...

2nd and 3rd verses: same, finish with a D5

Chorus:
play this part 5 times, then play that:
|------------------------|---------------------------------------------------
|-*--------------------*-|---------------------------------------------------
|-------------------2----|-------------------------------------------------2-
|---------2-----2---2----|-------------------------------------------------2-
|-*-0-3qb-0-3qb-0---0--*-|--0-3qb-0-3qb-0---------3-2-3--2--0----3-2-3-2---0-
|-----------------3------|----------------3-1---1--------------3---------3---


------------------------------------------
-------------------3---------------12~~~--
-------------------2---------------12~~~--
-------------------0----------------------
--0-3qb-0-3qb-0---------------------------
-----------------3------------------------


First solo:

--------------7-7-------------------------------------------------
-7----7----7--7-7----7----7----7-7--9hb---r--9hb--9hb--7-9-7-9-7~-
---9b---9b--------9b---9b---9b------9hb---r--9hb--9hb--7-9-7-9-7~-
------------------------------------------------------------------
------------------------------------------------------------------
------------------------------------------------------------------


-10-9-7-------------------------------------------------------------
--------10-9-7------------------------------------------------------
---------------9-9hb--r-p7-7-9-7------------------------------------
---------------------------------9-7-97-75-54-42-2-0--4--5--6/7-
----------------------------------------------------------4--5--6/7-
----------------------------------------------------------2--3--4/5-


-10-----------------10------10-------------------9-12hb-12-r-----------------
-10-------10---10---10------10---10---10------10--------12----10-12-12br-p10-
-9b---9b--9br---7---9b------9b---9b-r--7--/11--------------------------------
-----------------------------------------------------------------------------
-----------------------------------------------------------------------------
-----------------------------------------------------------------------------

---------------10----10----------10----13/14--10-----------------------
---------------10----10----------10----12/13--10-----------------------
-11-11---11-------------12-10h11------------------12b-r-p10-12-10h11p0-
------------12---------------------------------------------------------
-----------------------------------------------------------------------
-----------------------------------------------------------------------

------14------------------------------------------------------------
-17b-----17p14------------------------------------------------------
---------------19br-p14----16p14------------------------------------
------------------------16-------16-14------------------------------
---------------------------------------16-1413----------13----12---
---------------------------------------------------14-14----14------

-----------------------------------------------------------------
-7---7--6/7---7---6/7--7-------7/9---/10----9---97---5--542--
-----------------------------------------------------------------
-7---7--6/7---7---6/7--7---0---7/9---/11----9---97---6--642--
-----------------------------------------------------------------
-----------------------------------------------------------------

A.H.
------4--5------------------------------------------------------------
------------5b-r---2--5-----------------------------------------------
-4b----------------------4br-p2-4--2--4b-4p2--------------------------
----------------------------------------------4--4hb------------r--2-
----------------------------------------------------------------------
----------------------------------------------------------------------

----------------0---0-1--2---2---0--2--1--0--
----------------0---0-1--2---2---0--2--1--0--
---------------------------------------------
---------------------------------------------
---------------------------------------------
-0-1-2---2-1-0-------------------------------


Then comes the bridge:

------------------------------------------------------
-7////////14--8-----8--7-------7---*-*--75----
-7////////14--9-----9--7-------7---*-*--75----
-7////////14--7-----7--7-------7---*-*--75----
----------------------------------0-------------------
------------------------------------------------------

-----------------------------------------------3-
-----------------------------------------------3-
----5----4--*-*-4-*-*-*------10-----------*-*--0-
----7----5--*-*-5-*-*-*------10-----------*-*--0-
-------------------------8----8------------------
-0---------------------------------------------3-

A.H.
----------------------------------------------
-5------5-------------------------------------
-5------5----4---5------4----0--2hb-----------
-5------5----5---5------5----0----------------
----*-*---------------------------------------
----*-*----3----------------------------------


Last Riff:

--------------------------------------------------------------------------
--------------------------------------------------------------------------
---------------2----------------------------------------------------------
---------------2----------------------------------------------------------
-0-3-0-3-0-----0----0-3-0-3-0---------3-2-3-2-0----3-2-3-2-0----3-2-3-2-0-
------------3-----------------3--1--1------------1------------3-----------


Outro:
A.H.
-------------------------------------------------------------------------
-------------------------------------------------------------------------
--------------------------------------------2----2-2-2-2-2b-----2--r--2--
-------------------------------------------------------------------------
---------------3-5-5b--r-p3--5---5b--3---0-------------------------------
-3---b----5--5-----------------------------------------------------------


-------------------------------------------------------------------------
-------------------------------------------------------------------------
-2-2-2b----2---5-5-4---4-4-4-4--4/7---7--75--5/9b---9b---9----9-11p9----
------------------------------------------------------------12--------12-
-------------------------------------------------------------------------
-------------------------------------------------------------------------

------------------------------------------------------------8------8----
--------------------------------8b-----------------------8b---8b--------
-9---------------7b----7-7b---5-----------7b---7--7---5--------------7b-
---12p10----------------------------------------------------------------
---------12-------------------------------------------------------------
------------------------------------------------------------------------
A.H.
--------------5------------------------------------------------------------
----------5b-----8--5------------------------------------------------------
-7--7--5--------------7b-r-p5------------------------------------7hb---r-7-
------------------------------7--7--5--------------------------------------
---------------------------------------7-6-5-3-5-3-5b-5p3---5b-------------
----------------------------------------------------------5----------------

-------------5-8---------------8------------------8-10---------------------
-------8b---------8b----r-b------8b-r--5--10b-----------10b--10b--10b-r--8-
-7-7-5---------------------------------------------------------------------
---------------------------------------------------------------------------
---------------------------------------------------------------------------
---------------------------------------------------------------------------

-----------------------------------------------------------------------------
-13b---r--b--13-12-13-12h13p12p10----12----10h12p0----10-----10--------------
----------------------------------12----12---------12----12b----12-9---------
---------------------------------------------------------------------12br-10-
-----------------------------------------------------------------------------
-----------------------------------------------------------------------------

--------------------------------------------------------------------------
--------------------------------------------------------------------------
--------------------------------------------------------------------------
----12----12--------------------------------------------------------------
-12----12----12p10----10------------------------------5b-r-p3-5-5-3-5--/8-
-------------------12----108---10hb---r--8-3hb----5----------------------

-----------------------------------------------------------------------------
--------------------------------------------------------10h12p10----10-12-13-
---------------7----9------7--9-10/12-9h10p9----9-10-12----------12----------
-7-10-9h10p9p7---10-----10-------------------12------------------------------
-----------------------------------------------------------------------------
-----------------------------------------------------------------------------

-10----12----10-12-13--12h13p12p10----10--13b----r-b---13--12-13-12h13p12p10-
----13----13-----------------------13----------------------------------------
-----------------------------------------------------------------------------
-----------------------------------------------------------------------------
-----------------------------------------------------------------------------
-----------------------------------------------------------------------------

-12~-----10--13--12h13p12p10-1210p8----10----7h8h10p8p7-8-------------------------
-------------------------------------10----10---------------12b---r-12--12--10--10-
-----------------------------------------------------------------------------------
-----------------------------------------------------------------------------------
-----------------------------------------------------------------------------------
-----------------------------------------------------------------------------------

-----------10------------12-15-15-------------------------/15---12-----------
-10--13b------13p10h13b-----------15br-p13-15-12hb--r--10------------16--15---
------------------------------------------------------------------------------
------------------------------------------------------------------------------
------------------------------------------------------------------------------
------------------------------------------------------------------------------

-----12-15-13h15p13p12----13----12h13p12----12------12-------------------------
-15b-------------------15----15----------15----13-15---15p13-15p13-12----13----
----------------------------------------------------------------------14----14-
-------------------------------------------------------------------------------
-------------------------------------------------------------------------------
-------------------------------------------------------------------------------

----------------------------15---------
-12h13p12----12-13-15-15b------15b-----
----------14---------------------------
---------------------------------------
---------------------------------------
This took me forever
Please rate