Stop Censorship
 
 

 
 1-9 a b c d e f g h i j k l m n o p q r s t u v w x y z
   Guns N Roses - Nightrain Tab    

|--------------------------------------|
|-88-77-5-55-33-1-33-------------------|
|-99-77-5-55-44-2-44-55454-202---------|
|-77-77-5-55-55-3-55-55555-202---------| repeat
|--------------------------------------|
|--------------------------------------|

|--------------------------------------|
|--------------------------------------|
|--------------------------------------|
|-777-----777-----777------------------| repeat
|-777-----777-----777------------------|
|-555-0-3-555-0-3-555------------------|

|--------------------------------------|
|-------5-4-2h4------------------------|
|-11*----------------------------------|
|-11*----------------------------------| end with this (let ring)
|-9-*----------------------------------|
|--------------------------------------|

|-33------------------------------------|
|-55-7-7-5-7-5-3------------------------|
|----7-7-5-7-5-4------------------------|
|----7-7-5-7-5-5-7-5--7*----------------|
|---------------------7*----------------|
|---------------------5*----------------|

|-----------------------------------|
|-----------------------------------|
|-----------------------------------| ending
|-----------------------------------|
|-7-----------5-----------7---------|
|-5-8-7-8-7-5-3-8-7-8-7-5-5---------|
Rock on!
_
*| |*
*| |*
* /*
|-|
|_|
|_|
|_|
_|_|_
/
| (_) |
) (
| |
\_______/