Stop Censorship
 
 

 
 1-9 a b c d e f g h i j k l m n o p q r s t u v w x y z
   Guns N Roses - November Rain Tab    

E|----------------------------------------------------------------|
B|-13-----------(13)b-------------------6-5-------------------|
G|----------------------------5h7p5----------5---------5h7---|
D|-----------------------------------7----------7----------------|
A|----------------------------------------------------------------|
E|----------------------------------------------------------------|
need some time on my own sometimes i need sometime all alone

G F G
E|----------------------------------------------------------------------------|
B|------6b-------6p5----6---5---------------------------------------------|
G|----------------------------5-------------5h7-------------5h7p5--------|
D|-7-5---------------------------7----------------------7----------7-------|
A|---------------------------------------------------------------------------|
E|---------------------------------------------------------------------------|
ooh, everybody needs sometime on their own ooh, don`t you know you

F G
E|-------------------------------------------------------------------|
B|-6--5-------------------------------------------------------------|
G|------5---------------------7--9--10--12--14--16--17--19---|
D|--------7---------------------------------------------------------|
A|-------------------------------------------------------------------|
E|-------------------------------------------------------------------|
need sometime all alone

Guitar solo 2:
E|--------------------------------------20---------------20---------19b---------|
B|-----------------------18~~~~~~-20b------r20-----(20)b----18-17~------|
G|-7-9-10-12-14-16-17-19----------------------------------------------------|
D|---------------------------------------------------------------------------------|
A|---------------------------------------------------------------------------------|
E|---------------------------------------------------------------------------------|

w/Fill 2.
E|----------------------17--------------------------------------------------------------|
B|-17b-rb-r----17-18-20----18--20-17-18-20--17br-17-------------------------|
G|----------19--------------------------------------19brp17--19p17-----17--------|
D|------------------------------------------------------------------19------------------|
A|---------------------------------------------------------------------------------------|
E|---------------------------------------------------------------------------------------|

E|--------------------------------------------------------------------------------------|
B|-20---------------20----------------20b--20--18h20p18p17--18-17h18p17--|
G|----17-17------17----17-17-17----17--------------------------------------------|
D|-----------19-----------------19----------------------------------------------------|
A|--------------------------------------------------------------------------------------|
E|--------------------------------------------------------------------------------------|

E|--------------------------------------------|
B|-----17------20---------------------------|
G|-19-----19b------19---17~~~~---------|
D|--------------------------------------------|
A|--------------------------------------------|
E|--------------------------------------------|