Stop Censorship
 
 

 
 1-9 a b c d e f g h i j k l m n o p q r s t u v w x y z
   Guns N Roses - November Rain (complete) Tab    

guns n roses
november rain

tuning: down half step
note:EADGBe represents the string and not its tuning

Fmaj7 Dm9 C Csus4 C
When I look in to your eyes i can see a love restrained

Fmaj7 Dm9 C Csus4 C
but darlin` when i hold you, don`t you know i feel the same?

Dm G C
nothing lasts for ever and we both know hearts can change

Dm G C
and it`s hard to hold a candle in the cold november rain

Fmaj7 Dm
we`ve been through this such a long long time just tryin` to kill the pain

C Csus4 C Fmaj7 Dm
oh yeah but lovers always come and lovers always go and no one`s

C Csus4 C
really sure who`s letting go today walking a way

Fmaj7 Dm
if we could take the time to lay it on the line, i could rest my head

C Csus4 C Dm
just knowing that you were mine all mine

G C
so if you want to love me, then darlin` don`t refrain

Dm G C
or i`ll just end up walkin` in the cold november rain

F G
do you need sometime on your own

F G
do you need sometime all alone

F G
ooh, everybody needs sometime on their own

F G
ooh, don`t you know you need some time all alone

E5 F5 C5 E5 F5
i know it`s hard to keep an o-pen heart when even friends seem

D5 E5 F5 C5
e|-----------------------------------------------------------------------|
B|--------------3-5-5fbr-3-----------------------------------------------|
G|-------------------------4br~~~----------------------------------------|
D|-----------------------------------------------------------------------|
A|-----------------------------------------------------------------------|
E|-----------------------------------------------------------------------|
out to harm you but if you could heal a broken heart

e|----------------------------|
B|----------------------------|
G|-/5~~~~-------4br~~~~--2--0-|
D|----------------------------|
A|----------------------------|
E|----------------------------|

E5 F5 G5
wouldn`t time be out to charm you wo oohh oh ohowoh

Guitar solo 1:
e|-------------8-----------------------8------------8~~~~~~--------|
B|-8fb(11)r8fb---r8--6-8fbr8fb(11)r8fb---r8--5br~~----------5br5br-|
G|-----------------------------------------------------------------|
D|-----------------------------------------------------------------|
A|-----------------------------------------------------------------|
E|-----------------------------------------------------------------|

e|------------------------------------8-------------------------8--|
B|-(5)----------8---------8fb(11)r8fb---r8--6-8fbr8fb(11)r8fb------|
G|-----7p5--7s9---9s7--5-------------------------------------------|
D|-----------------------------------------------------------------|
A|-----------------------------------------------------------------|
E|-----------------------------------------------------------------|

e|-8fbr-8-10fb(slow)r-8-10p8----8------13p12----13p12----13b-13~~~-|
B|---------------------------10---11b--------13-------13-----------|
G|-----------------------------------------------------------------|
D|-----------------------------------------------------------------|
A|-----------------------------------------------------------------|
E|-----------------------------------------------------------------|

e|-13----12-13-12h13p12-----------------------------------20~~~~~--|
B|----15-----------------15~~-15-17-18-fbr-18-17-17br-17-----------|
G|-----------------------------------------------------------------|
D|-----------------------------------------------------------------|
A|-----------------------------------------------------------------|
E|-----------------------------------------------------------------|

e|-19-19-19s17-17-17s15-15-15s13-13-13s12-12--12h13p12----12h13~~~-|
B|-----------------------------------------------------15----------|
G|-----------------------------------------------------------------|
D|-----------------------------------------------------------------|
A|-----------------------------------------------------------------|
E|-----------------------------------------------------------------|

e|-12-13-12h13p12-------12-----------------------------------------|
B|----------------15p13----13-15h17p15-13-15-12h13-12h13p12--------|
G|----------------------------------------------------------14p12--|
D|-----------------------------------------------------------------|
A|-----------------------------------------------------------------|
E|-----------------------------------------------------------------|

e|-----------------------------------------------------------------|
B|-12----10--------------------------------13~~~-------------13~~~-|
G|----12----10--12--10--9~~~~--10h12p10s9---------10h12p10s9-------|
D|-----------------------------------------------------------------|
A|-----------------------------------------------------------------|
E|-----------------------------------------------------------------|

e|-----------------------15----------------------------------------|
B|-------------15fb-------------r15---13-----(13)fb~~~~~~~~~~~~----|
G|-10h12p10s9------------------------------------------------------|
D|-----------------------------------------------------------------|
A|-----------------------------------------------------------------|
E|-----------------------------------------------------------------|
sometimes i

F G F
e|----------------------------------------------------------|
B|-13-----------(13)b-------------------6-5-----------------|
G|----------------------------5h7p5----------5---------5h7--|
D|-----------------------------------7----------7-----------|
A|----------------------------------------------------------|
E|----------------------------------------------------------|
need some time on my own sometimes i need sometime all alone

G F G
e|------------------------------------------------------------------------|
B|------6b-------6p5----6---5---------------------------------------------|
G|----------------------------5-------------5h7-------------5h7p5---------|
D|-7-5---------------------------7----------------------7----------7------|
A|------------------------------------------------------------------------|
E|------------------------------------------------------------------------|
ooh, everybody needs sometime on their own ooh, don`t you know you

F G
e|-----------------------------------------------------------|
B|-6--5------------------------------------------------------|
G|------5---------------------7--9--10--12--14--16--17--19---|
D|--------7--------------------------------------------------|
A|-----------------------------------------------------------|
E|-----------------------------------------------------------|
need sometime all alone

Guitar solo 2:
e|--------------------------------------20---------------20--------19b~~-|
B|-----------------------18~~~~~~-20fb-(22)-r20---(20)fb----18-17~-------|
G|-7-9-10-12-14-16-17-19-------------------------------------------------|
D|-----------------------------------------------------------------------|
A|-----------------------------------------------------------------------|
E|-----------------------------------------------------------------------|
(`alone`)
e|-------------------------17--------------------------------------------|
B|-17br-(17)br----17-18-20----18-20-17-18-20-17br------------------------|
G|-------------19---------------------------------19brp17-19p17----17----|
D|--------------------------------------------------------------19-------|
A|-----------------------------------------------------------------------|
E|-----------------------------------------------------------------------|

e|-----------------------------------------------------------------------|
B|-20-------------20--------------20fb--20--18h20p18p17--18-17h18p17-----|
G|----17-17----17----17-17----17-----------------------------------------|
D|----------19-------------19--------------------------------------------|
A|-----------------------------------------------------------------------|
E|-----------------------------------------------------------------------|

e|----------------------------------------------------------------------|
B|-----17------20-------------------------------------------------------|
G|-19-----19b------19---17~~~~------------------------------------------|
D|----------------------------------------------------------------------|
A|----------------------------------------------------------------------|
E|----------------------------------------------------------------------|

Fmaj7 Dm C Csus4 C
and when your fears subside and shadows still remain oh yeah

Fmaj7 Dm
i know that you can love me when there`s no one left to blame

C Csus4 C Dm
aaaaaaaaaaaaaaahhhhhhhhhhhhhhhhhhhh

G C
so nevermind the darkness we still can find a way

Dm G C5 G/B
nothing lasts forever even cold november rain

A5 G5 F5 G5 C5 G/B A5 G5 F5 G5 C5 (hold)

piano and drums...

Then outro and final solo:
e|--------------------------------------------------------|-20-19--20-(20)fb--20-19--20-15----15--|
B|--------------------------------------------------------|--------------------------------16-----|
G|-x-x-5-----5----x-x-x--5----5-5-x-5--5--5-5-5-x-5--5--5-|---------------------------------------|
D|-x-x-5-----5----x-7-x--5----5-5-x-5--5--5-5-5-x-5--5--5-|---------------------------------------|
A|-3-3-3-----3----3-5-3--3--------------------------------|---------------------------------------|
E|--------------------------------------------------------|---------------------------------------|
. . . . .
|--16~-----15h16h15----15~--------15-|--16-15-16h15----------------15-----------------------------|
|-------------------18---------18----|--------------18-16----16-18----18-16-18-15-16-18-16-15-16--|
|------------------------------------|--------------------17--------------------------------------|
|------------------------------------|------------------------------------------------------------|
|------------------------------------|------------------------------------------------------------|
|------------------------------------|------------------------------------------------------------|

|-----------------------------------------|--20--------19~-----20b-|------20--19--20--15------15--|
|--15r-15r-----15-16-18-15-16-18-15-------|------------------------|----------------------16------|
|-----------17----------------------17~---|------------------------|------------------------------|
|-----------------------------------------|------------------------|------------------------------|
|-----------------------------------------|------------------------|------------------------------|
|-----------------------------------------|------------------------|------------------------------|

|--16~-----15h16h15----15~--------------|
|-------------------18---------15-16-18-|
|---------------------------------------|
|---------------------------------------|
|---------------------------------------|
|---------------------------------------|

|--15-16-15h16h15-------15-------15-------------------------15-16h15-------15-------|
|-----------------18-16----16-18----18h16-18-16----15-16-18----------18h16----16h18-|
|-----------------------------------------------17----------------------------------|
|-----------------------------------------------------------------------------------|
|-----------------------------------------------------------------------------------|
|-----------------------------------------------------------------------------------|

|--15----------------------------------------------------------------|--20--------19~-----20b-|
|-----18-16----15-16-18-15----16-15----------------------------------|------------------------|
|-----------17-------------17-------17-15-17-15h13h15h13h15h13-------|------------------------|
|--------------------------------------------------------------12~---|------------------------|
|--------------------------------------------------------------------|------------------------|
|--------------------------------------------------------------------|------------------------|

|------20--19----------------|----------------------------|--------20~--------20-15-20-19-20-|
|--------------15b-----15----|--15b-----15----18b-----16--|-----16---------------------------|
|-------------------------17-|-------------17-------------|--17------------------------------|
|----------------------------|----------------------------|----------------------------------|
|----------------------------|----------------------------|----------------------------------|
|----------------------------|----------------------------|----------------------------------|

|--15-18-16-18-15-16h15----15-------15----15----15----|--20--------19~-----20b-|
|-----------------------18----16-18----16----16----16-|------------------------|
|-----------------------------------------------------|------------------------|
|-----------------------------------------------------|------------------------|
|-----------------------------------------------------|------------------------|
|-----------------------------------------------------|------------------------|

|------20--19--20--15------15--|--16~-----15h16h15----15~--------15-|--18b---------15----15--------|
|----------------------16------|-------------------18---------18----|-----------------16----16-----|
|------------------------------|------------------------------------|--------------------------17~-|
|------------------------------|------------------------------------|------------------------------|
|------------------------------|------------------------------------|------------------------------|
|------------------------------|------------------------------------|------------------------------|

|--------------------------------------------|--20--------19~-----20b-|
|--------------------------------------------|------------------------|
|----15-17-17-15-----------------------------|------------------------|
|----------------17-16-15-15-15-13-15-13-----|------------------------|
|----------------------------------------15--|------------------------|
|--------------------------------------------|------------------------|

|------20--19--20--15------15--|--16~-----15h16h15----15~--------15-|
|----------------------16------|-------------------18---------18----|
|------------------------------|------------------------------------|
|------------------------------|------------------------------------|
|------------------------------|------------------------------------|
|------------------------------|------------------------------------|

|--15h16h18-15h16h18-15h16h18h16h15----16----15h16h15----15-----|---------------------15r----------|
|-----------------------------------18----18----------18----18r-|--16----18--16-18-16--------15r---|
|---------------------------------------------------------------|-----17---------------------------|
|---------------------------------------------------------------|----------------------------------|
|---------------------------------------------------------------|----------------------------------|
|---------------------------------------------------------------|----------------------------------|

|--20--------19~-----20b-|------20--19--20--15------15--|--16~-----15-------------------|
|------------------------|----------------------16------|-------------18-16-18r------16-|
|------------------------|------------------------------|-------------------------------|
|------------------------|------------------------------|-------------------------------|
|------------------------|------------------------------|-------------------------------|
|------------------------|------------------------------|-------------------------------|

|--------------------|--22b---------------||
|--15b---------------|--------------------||
|--------------------|--------------------||
|--------------------|--------------------||
|--------------------|--------------------||
|--------------------|--------------------||

C5 C5
you`re not the only one you`re not the only one

G5 F5 E5
don`t ya think that you need somebody don`t ya think that you need someone

A5 B5
everybody needs somebody


(play the above part `til the end of song along with solo)

**the end solo will be almost note for note the same as benjovi45`s solo because
thats where i learnt most of it and it was pretty *** perfect