Stop Censorship
 
 

 
 1-9 a b c d e f g h i j k l m n o p q r s t u v w x y z
   Guns N Roses - November Rain Lead Guitar Tab    

November Rain Lead
Tabbed By Bal Sandher

If you want the rest of the song, just make a comment. Please rate! This is hard to follow, but play along with music to get timing.

Guitar 1 (Slash)

D#||------------------|------------------|------------------|------------------|------------------|
A#||------------------|------------------|------------------|------------------|------------------|
F#||------------------|------------------|------------------|------------------|------------------|
C#||------------------|------------------|------------------|------------------|------------------|
G#||------------------|------------------|------------------|------------------|------------------|
D#||------------------|------------------|------------------|------------------|------------------|


-----------------------|------------------|--------------------|-------------------|
------3--5--5r---3-----|------------------|--------------------|-------------------|
--------------------4~-|------------------|--5~-------------4~-|----------2--------|
-----------------------|------------------|--------------------|-------------------|
-----------------------|------------------|--------------------|-------------------|
-----------------------|------------------|--------------------|-------------------|


Guitar Solo 1:
-------------------|------------------|--------------8--------|--------------8--------|
-------------------|------------------|--8b-----8b-----8r---6-|--8b-----8b-----8r--5r-|
--0----------------|------------------|-----------------------|-----------------------|
-------------------|------------------|-----------------------|-----------------------|
-------------------|------------------|-----------------------|-----------------------|
-------------------|------------------|-----------------------|-----------------------|



--------8~----------|--------------------------|--------------8--------|--------------8-8r----|
---------------5b---|----------------8---------|--8b-----8b-----8r---6-|--8b-----8b-----------|
--------------------|--------7h5-7/9---9/7--5--|-----------------------|----------------------|
--------------------|--------------------------|-----------------------|----------------------|
--------------------|--------------------------|-----------------------|----------------------|
--------------------|--------------------------|-----------------------|----------------------|



--10r-----------8h10h8----|--8----------13h12----13h12----13b-|--13~------------12-13--12h13h12-|
-----------------------10-|----11~------------13-------13-----|--------------15-----------------|
--------------------------|-----------------------------------|---------------------------------|
--------------------------|-----------------------------------|---------------------------------|
--------------------------|-----------------------------------|---------------------------------|
--------------------------|-----------------------------------|---------------------------------|



------------------------------|------------20~-------19-19-|
--15~-----15-17-18r-----18-17-|--17b-17~-------------------|
------------------------------|----------------------------|
------------------------------|----------------------------|
------------------------------|----------------------------|
------------------------------|----------------------------|



--19/17-17-17/15-15-15/13-13-13/12-12-12h13h12-----|--12h13~------12-13-12h13h12-------12----|
-----------------------------------------------15--|-----------------------------15h13----13-|
---------------------------------------------------|-----------------------------------------|
---------------------------------------------------|-----------------------------------------|
---------------------------------------------------|-----------------------------------------|
---------------------------------------------------|-----------------------------------------|



--------------------------------------------------------|-------------------------------------|
--15h17h15-13-15-12h13-12h13h12-------12----10----------|----------------13~---------------13~|
--------------------------------14h12----12----10-12-10-|--9~----12h10/9--------10h12h10/9----|
--------------------------------------------------------|-------------------------------------|
--------------------------------------------------------|-------------------------------------|
--------------------------------------------------------|-------------------------------------|



------------------------15------|--------------------|----------------------|
-----------------15b-------15r--|--13b---------------|----------------------|
------10h12h10/9----------------|--------------------|--------------5h7h5---|
--------------------------------|--------------------|--------------------7-|
--------------------------------|--------------------|----------------------|
--------------------------------|--------------------|----------------------|



------------------------|-----------------------|----------------------|-------------------------|
--6--5------------------|----------6b-------6h5-|--6--5----------------|-------------------------|
--------5-----------5h7-|-----------------------|--------5-------------|--5h7------------5h7h5---|
-----------7------------|--7--5-----------------|-----------7----------|---------------7-------7-|
------------------------|-----------------------|----------------------|-------------------------|
------------------------|-----------------------|----------------------|-------------------------|


Solo 2:

----------------------|------------------------|--------------------------|---------------------20-|
--6--5----------------|------------------------|--------------------------|--18~-----------20b-----|
--------5-------------|--7----9----10----12----|--14----16----17----19----|------------------------|
-----------7----------|------------------------|--------------------------|------------------------|
----------------------|------------------------|--------------------------|------------------------|
----------------------|------------------------|--------------------------|------------------------|



-----------------20-----|----------19b---------|--------------------|------------------------17----|
--20r---------------18--|--17~-----------------|------------17b-----|---------------17-18-20----18-|
------------------------|----------------------|--------------------|------------19----------------|
------------------------|----------------------|--------------------|------------------------------|
------------------------|----------------------|--------------------|------------------------------|
------------------------|----------------------|--------------------|------------------------------|



----------------------------------------|--------------------------------------|
--20-17-18-20-17r-----------------------|--20----------------20----------------|
--------------------19r--17-19h17----17-|-----17--17------17----17--17------17-|
----------------------------------19----|--------------19----------------19----|
----------------------------------------|--------------------------------------|
----------------------------------------|--------------------------------------|



--------------------------------------------------|--------------------|------------------|
--20b-20--18h20h18h17-18-17h18h17----17-----20----|--------------------|------------------|
----------------------------------19----19b----19-|------17~-----------|------------------|
--------------------------------------------------|--------------------|------------------|
--------------------------------------------------|--------------------|------------------|
--------------------------------------------------|--------------------|------------------|



------------------|------------------|------------------|------------------|------------------|
------------------|------------------|------------------|------------------|------------------|
------------------|------------------|------------------|------------------|------------------|
------------------|------------------|------------------|------------------|------------------|
------------------|------------------|------------------|------------------|------------------|
------------------|------------------|------------------|------------------|------------------|



------------------|------------------|------------------|------------------|------------------|
------------------|------------------|------------------|------------------|------------------|
------------------|------------------|------------------|------------------|------------------|
------------------|------------------|------------------|------------------|------------------|
------------------|------------------|------------------|------------------|------------------|
------------------|------------------|------------------|------------------|------------------|



------------------|------------------|------------------|------------------|------------------|
------------------|------------------|------------------|------------------|------------------|
------------------|------------------|------------------|------------------|------------------|
------------------|------------------|------------------|------------------|------------------|
------------------|------------------|------------------|------------------|------------------|
------------------|------------------|------------------|------------------|------------------|



------------------|------------------|------------------|------------------|------------------|
------------------|------------------|------------------|------------------|------------------|
------------------|------------------|------------------|------------------|------------------|
------------------|------------------|------------------|------------------|------------------|
------------------|------------------|------------------|------------------|------------------|
------------------|------------------|------------------|------------------|------------------|


Outro:
------------------|------------------|------------------|--------------------|-------------------|
------------------|------------------|------------------|--------------------|-------------------|
------------------|------------------|------------------|----------------x-x-|--5----------------|
------------------|------------------|------------------|----------------x-x-|--5----------------|
------------------|------------------|------------------|----------------x-x-|--3----------------|
------------------|------------------|------------------|--------------------|-------------------|



------------------|-------------------|---------------------|-------------------|
------------------|-------------------|---------------------|-------------------|
------------------|--5----------------|---------------x-x-x-|--5----------------|
------------------|--5----------------|---------------x-x-x-|--5----------------|
------------------|--3----------------|---------------x-x-x-|--3----------------|
------------------|-------------------|---------------------|-------------------|



------------------------------|--20--------19~-----20b-|------20--19--20--15------15--|
------------------------------|------------------------|----------------------16------|
--5-5-x-5--5--5-5-5-x-5--5--5-|------------------------|------------------------------|
--5-5-x-5--5--5-5-5-x-5--5--5-|------------------------|------------------------------|
------------------------------|------------------------|------------------------------|
------------------------------|------------------------|------------------------------|



--16~-----15h16h15----15~--------15-|--16-15-16h15----------------15----------------------------|
-------------------18---------18----|--------------18-16----16-18----18-16-18-15-16-18-16-15-16-|
------------------------------------|--------------------17-------------------------------------|
------------------------------------|-----------------------------------------------------------|
------------------------------------|-----------------------------------------------------------|
------------------------------------|-----------------------------------------------------------|



-----------------------------------------|--20--------19~-----20b-|------20--19--20--15------15--|
--15r-15r-----15-16-18-15-16-18-15-------|------------------------|----------------------16------|
-----------17----------------------17~---|------------------------|------------------------------|
-----------------------------------------|------------------------|------------------------------|
-----------------------------------------|------------------------|------------------------------|
-----------------------------------------|------------------------|------------------------------|



--16~-----15h16h15----15~--------------|
-------------------18---------15-16-18-|
---------------------------------------|
---------------------------------------|
---------------------------------------|
---------------------------------------|



--15-16-15h16h15-------15-------15-------------------------15-16h15-------15-------|
-----------------18-16----16-18----18h16-18-16----15-16-18----------18h16----16h18-|
-----------------------------------------------17----------------------------------|
-----------------------------------------------------------------------------------|
-----------------------------------------------------------------------------------|
-----------------------------------------------------------------------------------|



--15----------------------------------------------------------------|--20--------19~-----20b-|
-----18-16----15-16-18-15----16-15----------------------------------|------------------------|
-----------17-------------17-------17-15-17-15h13h15h13h15h13-------|------------------------|
--------------------------------------------------------------12~---|------------------------|
--------------------------------------------------------------------|------------------------|
--------------------------------------------------------------------|------------------------|



------20--19----------------|----------------------------|--------20~--------20-15-20-19-20-|
--------------15b-----15----|--15b-----15----18b-----16--|-----16---------------------------|
-------------------------17-|-------------17-------------|--17------------------------------|
----------------------------|----------------------------|----------------------------------|
----------------------------|----------------------------|----------------------------------|
----------------------------|----------------------------|----------------------------------|



--15-18-16-18-15-16h15----15-------15----15----15----|--20--------19~-----20b-|
-----------------------18----16-18----16----16----16-|------------------------|
-----------------------------------------------------|------------------------|
-----------------------------------------------------|------------------------|
-----------------------------------------------------|------------------------|
-----------------------------------------------------|------------------------|



------20--19--20--15------15--|--16~-----15h16h15----15~--------15-|--18b---------15----15--------|
----------------------16------|-------------------18---------18----|-----------------16----16-----|
------------------------------|------------------------------------|--------------------------17~-|
------------------------------|------------------------------------|------------------------------|
------------------------------|------------------------------------|------------------------------|
------------------------------|------------------------------------|------------------------------|



--------------------------------------------|--20--------19~-----20b-|
--------------------------------------------|------------------------|
----15-17-17-15-----------------------------|------------------------|
----------------17-16-15-15-15-13-15-13-----|------------------------|
----------------------------------------15--|------------------------|
--------------------------------------------|------------------------|



------20--19--20--15------15--|--16~-----15h16h15----15~--------15-|
----------------------16------|-------------------18---------18----|
------------------------------|------------------------------------|
------------------------------|------------------------------------|
------------------------------|------------------------------------|
------------------------------|------------------------------------|



--15h16h18-15h16h18-15h16h18h16h15----16----15h16h15----15-----|---------------------15r----------|
-----------------------------------18----18----------18----18r-|--16----18--16-18-16--------15r---|
---------------------------------------------------------------|-----17---------------------------|
---------------------------------------------------------------|----------------------------------|
---------------------------------------------------------------|----------------------------------|
---------------------------------------------------------------|----------------------------------|



--20--------19~-----20b-|------20--19--20--15------15--|--16~-----15-------------------|
------------------------|----------------------16------|-------------18-16-18r------16-|
------------------------|------------------------------|-------------------------------|
------------------------|------------------------------|-------------------------------|
------------------------|------------------------------|-------------------------------|
------------------------|------------------------------|-------------------------------|



--------------------|--22b---------------||
--15b---------------|--------------------||
--------------------|--------------------||
--------------------|--------------------||
--------------------|--------------------||
--------------------|--------------------||