Stop Censorship
 
 

 
 1-9 a b c d e f g h i j k l m n o p q r s t u v w x y z
   Guns N Roses - Sweet Child O Mine Tab    


Tune down half step

Intro:

D C
e:|--------------15----14-----|--------------15----14-----|
B:|-----15--------------------|-----15--------------------|
G:|:-------14-12----14----14-:|:-------14-12----14----14-:|
D:|--12-----------------------|--14-----------------------|
A:|---------------------------|---------------------------|
E:|---------------------------|---------------------------|

G D
e:|--------------15----14-----|--------------15----14-----|
B:|-----15--------------------|-----15--------------------|
G:|:-12----14-12----14----14-:|:-------14-12----14----14-:|
D:|---------------------------|--12-----------------------|
A:|---------------------------|---------------------------|
E:|---------------------------|---------------------------|


Chorus:

A C
e:|---------------------------|--------------12----10-----|
B:|--14-14-------15----14-----|--13-13--------------------|
G:|--------14-------14----14--|--------12-10----12----12--|
D:|-----------14--------------|---------------------------|
A:|---------------------------|---------------------------|
E:|---------------------------|---------------------------|


D D
e:|--------------15----14-----|--------------15---14-----|
B:|-----15--------------------|-----15-------------------|
G:|--------14-12----14----14--|--------14-12---14----14--|
D:|--12-----------------------|--12----------------------|
A:|---------------------------|--------------------------|
E:|---------------------------|--------------------------|


A C
e:|---------------------------|--------------12----10-----|
B:|--14-14-------15----14-----|--13-13--------------------|
G:|--------14-------14----14--|--------12-10----12----12--|
D:|-----------14--------------|---------------------------|
A:|---------------------------|---------------------------|
E:|---------------------------|---------------------------|


D D
e:|---------------------------|---------------------------|
B:|--------15-----------------|---------------------------|
G:|--12s14--------------------|---------------------------|
D:|---------------------------|---------------------------|
A:|---------------------------|---------------------------|
E:|---------------------------|---------------------------|

solo
|-17^--hold----15--14--h15p14-----------15--14--h15p14-----------12--14-|
|-----------------------------17-----------------------17-16------------|
|-----------------------------------------------------------------------|
|-----------------------------------------------------------------------|
|-----------------------------------------------------------------------|
|-----------------------------------------------------------------------|

|-----------------------------------------------------------------------|
|--15^--12----------------------------------------13-12-------h13p1210-|
|----------14^--12--11h12----------------11-12-14-----------------------|
|-----------------------------14-----14---------------------------------|
|-----------------------------------------------------------------------|
|-----------------------------------------------------------------------|

|---------------------------------------------15^-----------------------|
|--13^-----13-----12--12-(12)-------12^----------------7^^--------------|
|-----------------------------------------14-----------------9--9-------|
|-----------------------------------------------------------------------|
|-----------------------------------------------------------------------|
|-----------------------------------------------------------------------|

|-----------------------------------------------------------------------|
|-----7^----------------------------------------------------------------|
|----------9--9-----8^----8/11---------11^---9-----------------9--------|
|-----------------------------------------------9^---7---9--------------|
|-----------------------------------------------------------------------|
|-----------------------------------------------------------------------|

|-----------------------------------------------------------------------|
|--------7h8--p7---------------------------------------------7^---7-10^-|
|----------------------9------8^-----8------/11-----9^--8-9-----9-------|
|-----------------------------------------------------------------------|
|-----------------------------------------------------------------------|
|-----------------------------------------------------------------------|

|-7-8p7-11p7-8-11-12/14-11-12--14/15-12-14-15p14-12----14p11-12h14p12---|
|---------------------------------------------------15----------------15|
|-----------------------------------------------------------------------|
|-----------------------------------------------------------------------|
|-----------------------------------------------------------------------|
|-----------------------------------------------------------------------|
w/wah wah
|-17--------------------------------------------------------------------|
|----15^---15^---15^---15^---15^-p12-----15^----15^--------15^-p12------|
|------------------------------------14----------------------------14---|
|-----------------------------------------------------------------------|
|-----------------------------------------------------------------------|
|-----------------------------------------------------------------------|

|----------------------------------15-----------------------------------|
|--17^---17^--------17^----17^----------17^---------17^-p15--15h17------|
|-------------------17^-------------------------------------------------|
|-----------------------------------------------------------------------|
|-----------------------------------------------------------------------|
|-----------------------------------------------------------------------|

|-----------12----------------------------------------------------------|
|-15^------------15---12------------------------------------------------|
|---------------------------14^-p12-14---12-14----12--14^----12--14--12-|
|-----------------------------------------------------------------------|
|-----------------------------------------------------------------------|
|-----------------------------------------------------------------------|

|----15-------------15-----15-----15------------------------------------|
|----15-------15----15-----15-------15----------------------------------|
|-14^--14--12-14^-----14^----14^------14^-p12----14p12--x-x----12^------|
|---------------------------------------------14--------x-x-------------|
|-----------------------------------------------------------------------|
|-----------------------------------------------------------------------|

|-----------------------------------------------------------------------|
|-----------------------------------------------------------------------|
|-----------------12h14p12----12^--------------------12h14p12-----12-12-|
|-14p12-14----x-x----------14--------14p12-14----x-x----------14--------|
|-----------------------------------------------------------------------|
|-----------------------------------------------------------------------|

|----------------------------------------------12-12-------15-15p12--15-|
|-------------------12-12-------15-15p12-------------15p12--------------|
|-------14-14p12-14-------14p12-----------------------------------------|
|-14p12-----------------------------------------------------------------|
|-----------------------------------------------------------------------|
|-----------------------------------------------------------------------|

|-14----12h15p12---------12-----------12-----------12-----------12------|
|----15----------15--15^----15p12--------15p12-15^----15p12--------15p12|
|----------------------------------14^-----------------------14^--------|
|-----------------------------------------------------------------------|
|-----------------------------------------------------------------------|
|-----------------------------------------------------------------------|

|------12-----------12-----------12--------------12-------15^-----------|
|--15^----15p12--------15p12-15^----15p12-----12----15p12---------------|
|---------------14^-----------------------14^---------------------------|
|-----------------------------------------------------------------------|
|-----------------------------------------------------------------------|
|-----------------------------------------------------------------------|

|--------------------15------12h15p12----12------12---------------------|
|-------------------------------------15-----15^-----15p12--------------|
|-----------------------------------------------------------14^-p12-14^-|
|-----------------------------------------------------------------------|
|-----------------------------------------------------------------------|
|-----------------------------------------------------------------------|

|---------------------------------------------------|
|-------15------------------------------------------|
|----------14^-p12-14^----14p12--------------12-----|
|----------------------14-------14------------------|
|---------------------------------------------------|
|---------------------------------------------------|