Stop Censorship
 
 

 
 1-9 a b c d e f g h i j k l m n o p q r s t u v w x y z
   Guns N Roses - Welcome To The Jungle Tab    

#----------------------------------PLEASE NOTE---------------------------------#
#This file is the author`s own work and represents their interpretation of the #
#song. You may only use this file for private study, scholarship, or research. #
#------------------------------------------------------------------------------##

WELCOME TO THE JUNGLE
As recorded by Guns N` Roses
(From the 1987 Album APPETITE FOR DESTRUCTION)

Words and Music by Guns N` Roses
Transcribed by JimmyRocks

B A G5 E
x 2 4 4 4 x x 0 2 2 2 x 3 x 0 0 3 3 0 2 2 1 0 0

D5 A5 B5 D
x 5 7 7 x x 5 7 7 x x x x 2 4 4 x x x x 0 2 3 2

G D7 GIII F
3 2 0 0 3 3 x x 0 2 1 x 3 5 5 4 3 3 1 3 3 2 1 1

C#5 A5II C5 E5
x 4 6 6 x x x 0 2 2 x x x 3 5 5 x x 0 2 2 x x x

F#5 F5 G5(type 2) G#5
2 4 4 x x x 1 3 3 x x x 3 5 5 x x x 1 3 3 x x x

Bb5
6 8 8 x x x

Gtr I (Eb Ab Db Gb Bb Eb) - `Untitled`
Gtr II (Eb Ab Db Gb Bb Eb) - `Untitled`
Gtr III (Eb Ab Db Gb Bb Eb) - `Untitled`

Intro
Moderate Rock Q=104
4/4
Gtr I
PM-----------------------------------------------------
S S S S S S S S S S S S S S S S
|-------------------------------------------------------|
|-------------------------------------------------------|
|-4-(4)-(4)-4-(4)-(4)-(4)-(4)-(4)-(4)-4-4-4-(4)-(4)-(4)-|
|-------------------------------------------------------|
|-------------------------------------------------------|
|-------------------------------------------------------|


2/4 4/4
-----------------------------------------------------------------------------|
S S S S S S S S S S S S S S S S S S S S S S S S
|---------------------------------||-----------------------------------------------||
|---------------------------------||o---------------------------------------------o||
|-(4)-(4)-(4)-(4)-(4)-(4)-(4)-(4)-||--4-(4)-4-2-(4)-2---(4)-----(4)-----(4)---(4)--||
|---------------------------------||------------------4-----4-2-----2-0------------||
|---------------------------------||o---------------------------------------2-----o||
|---------------------------------||-----------------------------------------------||


B A
Gtr III
W W
| |
/ /

PM-----------------------------------------------------------------------------------------------
S S S S S S S S S S S S S S S S S S S S S S S S S S S S S S S S
|---------------------------------------------|---------------------------------------------------|
|---------------------------------------------|---------------------------------------------------|
|-4-(4)-4-2-(4)-2---(4)-----(4)-----(4)---(4)-|-4----(4)-4-2-(4)-2---(4)-------(4)------(4)---(4)-|
|-----------------4-----4-2-----2-0-----------|--------------------4------4--2------2-0-----------|
|---------------------------------------2-----|---------------------------------------------2-----|
|---------------------------------------------|---------------------------------------------------|
|
| Gtr II
| S E. +H E E S +E S +Q +E E Q
|---------------------------------------------|---------------------------------------------------|
|---------------------------------------------|---------------------------------------------------|
|---------------------------------------------|---------------------------------------------------|
|-7h=9------(9)-------------------7-----9-----|-9b10r(9)---7-(7)---------(7)---(7)---------------|
|---------------------------------------------|---------------------------------------------------|
|---------------------------------------------|---------------------------------------------------|


G5
W
|
/

------------------------------------------|
S S S S S S S S S S S S S S S S
|----------------------------------------------|
|----------------------------------------------|
|-4-(4)-4-2-(4)-2---(4)-----(4)-----(4)----(4)-|
|-----------------4-----4-2-----2-0------------|
|---------------------------------------2------|
|----------------------------------------------|
|
| S E. +H E E
|----------------------------------------------|
|----------------------------------------------|
|----------------------------------------------|
|-7h=9------(9)-------------------------9-----|
|----------------------------------------------|
|----------------------------------------------|


E
W
|
/

PM-------------------------------------------
S S S S S S S S S S S S S S S S
|---------------------------------------------|
|---------------------------------------------|
|-4-(4)-4-2-(4)-2---(4)-----(4)-----(4)---(4)-|
|-----------------4-----4-2-----2-0-----------|
|---------------------------------------2-----|
|---------------------------------------------|
|
| H. E e
|---------------------------------------------|
|---------------------------------------------|
|---------------------------------------------|
|-2s==============================9-----9-----|
|---------------------------------------------|
|---------------------------------------------|


B A
W W
| |
/ /

---------------------------------------------------------------------|
S S S S S S S S S S S S S S S S S S S S S S S S S S S S S S S S
|----------------------------------|------------------------------------|
|----------------------------------|------------------------------------|
|-4--4-4-2-2-2---------------------|-4---4-4-2-2-2----------------------|
|--------------4-4-4-2-2-2-0-0-----|---------------4-4-4-2-2-2-0-0------|
|------------------------------2-0-|-------------------------------2--0-|
|----------------------------------|------------------------------------|
|
| H. E S S H.. E
|-7----------------------------7s5-|-5-----------------------------5---|
|-7----------------------------7S5-|-5-----------------------------5---|
|-4----------------------------4s2-|-2-----------------------------2---|
|----------------------------------|------------------------------------|
|----------------------------------|------------------------------------|
|----------------------------------|------------------------------------|


E D5 A5 B5
W H H E E E E E E E E
| | | | | | | | | | |
/ / / / / / / / / / /

PM----------------------------| PM----------|
S S S S S S S S S S S S S S S S H H E E E E E E E E
|---------------------------------|------0----|------------------|
|---------------------------------|-3----0----|------------------|
|-4-4-4-2-2-2---------------------|-2----2----|-4-4-4-4-4-4-4-4--|
|-------------4-4-4-2-2-2-0-0-----|-0----2----|-4-4-4-4-4-4-4-4--|
|-----------------------------2-0-|------0----|-2-2-2-2-2-2-2-2--|
|---------------------------------|-----------|------------------|
|
| W H H E E E E E E E E
|-0-------------------------------|-----------|------------------|
|-0-------------------------------|-7----5----|-------------3-5--|
|-1-------------------------------|-7----6----|---------2-4------|
|-2-------------------------------|-7----7----|-----2-4----------|
|-2-------------------------------|-5----7----|-2-4--------------|
|-0-------------------------------|------5----|------------------|


Faster Q=124
E E E E Q Q W
| | | | | |
/ / / / / /

PM--------| PM PM|
E E E E Q Q Q S +S S S +S S E E E
|----------------------||-----------------------------|
|----------------------||-----------------------------|
|-4---4-4----4--4--4--||-2-----------2-2-(2)-0-------|
|-4---4-4----4--4--4--||-2-----------2-2-(2)-0-------|
|-2---2-2----2--2--2--||-0-----------0-0-(0)-------0-|
|----------------------||-----3b4-(3)-----------3-2---|
|
| ~
| E E E +E Q Q E E E S S +S S E E E
|-----5-5--------------||-----------------------------|
|-5b6---5b6r(5)-3------||-----------------------------|
|------------------4--||-----------------------------|
|----------------------||-----------------------------|
|----------------------||-7-7-5-------7-7-(7)-7-5-4-2-|
|----------------------||-5-5-3-------5-5-(5)-5-3-2-0-|


W
PM PM|
E S S S +S S S +S S E E E
|-------------------------------|
|-------------------------------|
|-2-x-x---------2-2-(2)-0-------|
|-2-x-x---------2-2-(2)-0-------|
|-0-x-x---------0-0-(0)-------0-|
|-------3b4-(3)-----------3-2---|
|
| E E E S S +S S E E E
|-------------------------------|
|-------------------------------|
|-------------------------------|
|-------------------------------|
|-7-7---5-------7-7-(7)-7-5-4-2-|
|-5-5---3-------5-5-(5)-5-3-2-0-|


PM PM|
E S S S +S S S +S S E E E E E S S S S +Q S S E
|-------------------------------|---------------------x-5-(5)---------------||
|-------------------------------|-------------------------------------------||
|-2-x-x---------2-2-(2)-0-------|--2------------x---------------------------||
|-2-x-x---------2-2-(2)-0-------|--2------------x---------------------------||
|-0-x-x---------0-0-(0)-------0-|--0--------0---x-------------------3p0-----||
|-------3b4-(3)-----------3-2---|---------------------------------------2---||
|
| E E E S S +S S E E E S S S S S S S S S S S S S S S S
|-------------------------------|-------------------------------------------||
|-------------------------------|-------------------------------------------||
|-------------------------------|-[7]b9r(7)-5---7-5b6-----------------------||
|-------------------------------|-------------7-------7-5-------------------||
|-7-7---5-------7-7-(7)-7-5-4-2-|--------------------------7--6-5s3-5-3-----||
|-5-5---3-------5-5-(5)-5-3-2-0-|---------------------------------------5-3-||


1st & 2nd Verses
$
PM| PM------------------| PM------------|
E E S +E S +S S E E S S S S E S +S S S +S S E E S S
||----------------------------------|-----------------------------------|
||o---------------------------------|-----------------------------------|
||----------------------------------|-----------------------------------|
||----------------------------------|-----------------------------------|
||o-0-0-------------0-(0)-0---------|-0-0-0-----------0-0-(0)-0---------|
||--------3b4-(3)-----------3-2-0-0-|---------3b4-(3)-----------3-2-0-0-|
|
| PM| PM--| PM| PM--|
| E S S S +S S S S S E E E E S S S +S S S S S E E E
||----------------------------------|-----------------------------------|
||o---------------------------------|-----------------------------------|
||--2-x-x---------2-2---------------|-2---x-x---------2-2---------------|
||--2-x-x---------2-2---------------|-2---x-x---------2-2---------------|
||o-0-x-x---------0-0-------5-4-----|-0---x-x---------0-0-------5-4-----|
||--------3b4-(3)---------3-3-2-0---|---------3b4-(3)---------3-3-2-0---|


PM| PM------------|
S S E S +S S S +S S E E S S
|-----------------------------------|
|-----------------------------------|
|-----------------------------------|
|-----------------------------------|
|-0-0-0-----------0-0-(0)-0---------|
|---------3b4-(3)-----------3-2-0-0-|
|
| PM| PM--|
| E S S S +S S S S S E E E
|-----------------------------------|
|-----------------------------------|
|-2---x-x---------2-2---------------|
|-2---x-x---------2-2---------------|
|-0---x-x---------0-0-------5-4-----|
|---------3b4-(3)---------3-3-2-0---|


S S E S +S S S +S S E E S S E E E S S +S S E E E
|-----------------------------------|------------------------|
|-----------------------------------|------------------------|
|-------------------------------7s9-|-9-9-7-x-9-(9)-9--------|
|-------------------------------7S9-|-9-9-7-x-9-(9)-9-7-6-4--|
|-0-0-0-----------0-0-(0)-0---0-5s7-|-7-7-5-x-7-(7)-7-5-4-2--|
|---------3b4-(3)-----------3-------|------------------------|
|
| PM| PM--|
| E S S S +S S S S S E E E Q E S S +S S E E E
|-----------------------------------|------------------------|
|-----------------------------------|------------------------|
|-2---x-x---------2-2---------------|-9---7-x-9-(9)-7--------|
|-2---x-x---------2-2---------------|-9---7-x-9-(9)-7--------|
|-0---x-x---------0-0-------5-4-----|-7---5-x-7-(7)-5-5-4-2--|
|---------3b4-(3)---------3-3-2-0---|------------------------|


E E E S S +S S E E E
|------------------------------|
|------------------------------|
|-9--9------7-x-9-(9)-9--------|
|-9--9------7-x-9-(9)-9-7-6-4--|
|-7--7------5-x-7-(7)-7-5-4-2--|
|------------------------------|
|
| E S S E S S +S S E E E
|------------------------------|
|------------------------------|
|-9---------7-x-9-(9)-7--------|
|-9---------7-x-9-(9)-7--------|
|-7-<7>-<7>-5-x-7-(7)-5-5-4-2/-|
|------------------------------|


E E E S S +S S E E E E E E S S +S S E E E
|--------------------------|--------------------------|
|--------------------------|--------------------------|
|-9-9---7-x-9-(9)-9--------|-9-9---7-x-9-(9)-9--------|
|-9-9---7-x-9-(9)-9-7-6-4--|-9-9---7-x-9-(9)-9-7-9----|
|-7-7---5-x-7-(7)-7-5-4-2--|-7-7---5-x-7-(7)-7-5-7-0--|
|--------------------------|--------------------------|
|
| E S S E S S +S S E E E E S S E S S +S S E E E
|--------------------------|--------------------------|
|--------------------------|--------------------------|
|-9-x-x-7-x-9-(9)-7--------|-9-x-x-7-x-9-(9)-7--------|
|-9-x-x-7-x-9-(9)-7--------|-9-x-x-7-x-9-(9)-7--------|
|-7-x-x-5-x-7-(7)-5-5-4-2/-|-7-x-x-5-x-7-(7)-5-5-4-2/-|
|--------------------------|--------------------------|


Gtrs I, II
PM~~~~~~~
Q Q Q Q Q Q Q Q E E E S S +S S E E E
|-------------|-------------|------------------------|
|-------------|-------------|------------------------|
|-5-----------|-7-----------|-9-9--------------------|
|-5-----------|-7-----------|-9-9--------------------|
|-3--2--------|-5--4--------|-7-7-5------------------|
|-------5--3--|-------7--5--|-------6-6-(6)s5-5-3-0--|


1.,D.S.
To Coda
e e E S S +S S E E E e e E S S +S S E E E E. S +E E +E E E E
|-----------------------|-----------------------|-----------------------||
|-----------------------|-----------------------|----------------------o||
|-----------------------|-----------------------|-----------------------||
|-----------------------|-----------------------|-----------------------||
|-7-7-5-----------------|-7-7-5-----------------|-7--5-(5)-------------o||
|-------6-6-(6)s5-5-3-0-|-------6-6-(6)s5-5-3-0-|----------6-(6)-5-3-4--||


Guitar Solo 1
2.
Gtr I
~~~
E. S +E E +E E E E E E E E S S E E E
|--------------------------||-----------------------------|
|--------------------------||-----------------------------|
|--4---4-(4)--4-(4)-4------||---12s13-------------13---13-|
|--4---4-(4)--4-(4)-4-2--2-||---11s12-----(12)-14-14---14-|
|--2---2-(2)--2-(2)-2-0--0-||-----------------------------|
|--------------------------||---------0-------------------|
|
| Gtr II
| E. S +E E +Q Q Q E S S E E E E
|-/7--/7-(7)----------x---||-----------------------------|
|-/7--/7-(7)-/7-(7)---x---||----------------------9------|
|---------------------x---||----------------------9------|
|--------------------------||-------9-7-9----------9----9-|
|--------------------------||-------7--------------7----7-|
|--------------------------||-0-----0-------0--------0----|


~~~~~~ ~~~ PM ~~
+E E e E E Q. E E E E E E E E
|------------------------------|---------------------------|
|------12------------15--------|-----------------15---15---|
|-(13)-12-13-x---x---16--------|---12s13---------13---13---|
|-(14)----14-x---x-------------|---11s12-------------------|
|------------------------------|---------------------------|
|------------------------------|---------0---0-------------|
|
| E E E S S S S S S E E Q E S S S S E E E
|------------------------------|---------------------------|
|---9--------------------------|---------------------------|
|---9--------------------------|-------9-7-9------9----9---|
|---9---5s=0-------------------|-------9-7-9------9----9---|
|---7----------2------------/7-|-------7-5-7------7----7---|
|------------0---0-0--3s2p0----|-0-------------0----0------|


~~~~~
|--3--| |---3---|
+S S E Q E E E E E E E +H e e E
|--------------------------15---15----|-------19b22-(19)-------19-18---17b19==|
|-(15)p12-14s15-----------15---15----|----17---------------------------------|
|-(13)----15s16-------------------6s|=18------------------------------------|
|-------------------------------------|---------------------------------------|
|-------------------------------------|---------------------------------------|
|-------------------------------------|---------------------------------------|
|
| E E E S S S S S S E E Q E E E E E E
|----------------x-3-(3)p0------------|----------------------0-------0--------|
|----------------x-2-(2)--------------|----------------------0-------0--------|
|----------9--------------------------|--------------------7------------------|
|---9------9--------------------------|--9------------9--9-9------------------|
|----------7--------------------------|--7------------7--7-7------------------|
|-------------0-------------3s2p=0--0-|-------------------------0-------------|


~~
+Q +E S S Q E. S
|-(17)r==(17)--15-16---------------------|
|--------------------15---(15)---15b17==|
|----------------------------------------|
|----------------------------------------|
|----------------------------------------|
|----------------------------------------|
|
| +E E E E E Q S S
|--(0)------------------0----------------|
|--(0)--------/10-------0-------3--3-----|
|----------7----------7---------4--4-----|
|----------9--------------------5--5-----|
|----------7-----------------------------|
|------0---------------------------------|


|---3----|
+E E E S +S S +S +S S S S S S S S
|---------------------------------------------------------------|
|-(15)-15p==12--------------------------------------------------|
|--------------14b16-(14)-14b15==(14)r(14)p12-14-12-------------|
|---------------------------------------------------14-14-------|
|---------------------------------------------------------13-13-|
|---------------------------------------------------------------|
|
| E E E E E E E E
|---------------------------------------------------------------|
|---------------------------------------------------------------|
|---7-----8-----9----------7------------8------9-----7-----8----|
|---7-----8-----9----------7------------8------9-----7-----8----|
|---5-----6-----7----------5------------6------7-----5-----6----|
|---------------------------------------------------------------|


D.S. al Coda
E S S E E +Q Q
|------------------------------------||
|------------------------------------||
|------------------[8]b11-(8)--------||
|------------------------------11---||
|-12b14r(12)p10----------------------||
|---------------12-------------------||
|
| E E E E +Q +Q
|------------------------------------||
|------------------------------------||
|--9------7------8--9-----(9)--(9)--||
|--9------7------8--9-----(9)--(9)--||
|--7------5------6--7-----(7)--(7)--||
|------------------------------------||


&
D G
Gtr II
W W
| |
/ /

Gtr I
H. E E H +Q E E
|--------------|-^3----(3)--------|
|-^7-----------|-^3----(3)--6-----|
|-^7-------5---|-^4----(4)--4b5---|
|-^7-------3---|-^5----(5)--------|
|-^5-----------|-^5----(5)--------|
|--------------|-^3----(3)--------|


D G
W W
| |
/ /

Q. E E E E E Q. E E a E E E
|-------------------|-----------------------||
|-7----8p=7---------|-^12----13p12-------8-||
|-7----7-(7)--------|-^12-----------7s5-5---||
|-7----7-(7)-7-10---|-^12-------------------||
|-5-------------8---|-^10-------------------||
|-------------------|-----------------------||


D G D D7
W W H. Q
| | | |
/ / / /

E E E E Q E E Q. E E a E E E H. E E
|-----------------|-------------------------|---------------|
|-7---------------|-^12----13p12-------10s7-|-^7------------|
|---7-------------|-^12---------------------|-^7------------|
|-----7-6-7--10---|-^12----------12s10-10s7-|-^7-------10---|
|-------------8---|-^10---------------------|-----------8---|
|-----------------|-------------------------|---------------|


GIII F GIII F
E E E E q Q E E E S S q Q
| | | | | | | | | | | | |
/ / / / / / / / / / / / /

E E E E q q E E E S S q q
|---------------------|------------------------|
|-12-12-12-12-12--10--|-12-12-12-12-12-12--10--|
|-12-12-12-12-12--10--|-12-12-12-12-12-12--10--|
|-12-12-12-12-12--10--|-12-12-12-12-12-12--10--|
|---------------------|------------------------|
|---------------------|------------------------|


GIII F A G
E E E E q Q E E E E E E E E
| | | | | | | | | | | | | |
/ / / / / / / / / / / / / /

E E E E q q E E E E E E E E
|---------------------|-------------------------|
|---------------------|-------------------------|
|-12-12-12-12-12--10--|-14-14-14-14-14-14-14s12-|
|-12-12-12-12-12--10--|-14-14-14-14-14-14-14S12-|
|-10-10-10-10-10---8--|-12-12-12-12-12-12-12s10-|
|---------------------|-------------------------|


Gtrs I, II
PM| PM PM| ~~~~~~ PM| PM PM| ~~~~~~
E E E E E E E E E E E E E Q E E E E E E E E E E E E E E Q E
|-----------------|------------------|-----------------|------------------||
|-----------------|------------------|-----------------|------------------||
|---6s7-----9---9-|-9-6s7-----12--12-|---6s7-----9---9-|-9-6s7-----12--12-||
|---5s6-----9---9-|-9-5s6-----12--12-|---5s6-----9---9-|-9-5s6-----12--12-||
|-----------------|------------------|-----------------|------------------||
|-0-----0-0---0---|-------0-0--------|-0-----0-0---0---|-------0-0--------||


Guitar Solo 2
C#5 B5 A5B5A5II B5 A5B5 C5
Gtr II
Q E E E E E E +E E E E E E E E
| | | | | | | | | | | | | | |
/ / / / / o / / / / / / / / /

Gtr I
~~~~~~~~~ ~~~~
H E E E +E +Q. S S a E E E E
|---------------------|------------------------------|
|---------------------|------------------------------|
|---------------------|------------------------------|
|---------------------|------------------9-9b10-[11]-|
|--------7---9b11r(9)-|-(9)-----7-7-9s11-------------|
|-9--------9----------|------------------------------|


C#5 B5 A5B5A5B5 A5II B5 C5
Q E E E E E E +E E E E E E E E
| | | | | | | | | | | | | | |
/ / / / / o / / / / / / / / /

~~~~~~ ~~~~~~~~~~
+H E E E +E +H S S S S E E
|------------------------------|----------------------------------------|
|------------------------------|---------------------------------12-----|
|-----------9b10----11b13r(11)-|-(11)-------11b13r(11)p9----9b10-11b13==|
|-(11)-----------11------------|-------------------------11-------------|
|------------------------------|----------------------------------------|
|------------------------------|----------------------------------------|


C#5 B5 A5B5 A5IIE5
Q E E E E E E +E E E E E E E E
| | | | | | | | | | | | | | |
/ / / / / o / / / / / / / o /

~~~~ ~~~~~~~~~
+H E S S E E +Q. E E E E E
|--------------------------|------------------0-|
|-(12)------12-------------|--------------5---5-|
|-(11)------11r(11)p9------|-----------/6---6---|
|---------------------11-9-|-(9)s====6----------|
|--------------------------|--------------------|
|--------------------------|--------------------|


B5
+E E E E E E E E E E E E E E E E
| | | | | | | | | | | | | | | |
/ / / / / / / / / / / / / o o /

+Q Q Q Q E +E E E E E E E
|-(0)---0---0---0---|--------------------------|
|-(5)---3---2---0---|-2b3r(2)-2b3-0-(0)-0----0-|
|-------------------|-2b3r(2)-2b3-0h=1--1-2-/4-|
|-------------------|--------------------------|
|-------------------|--------------------------|
|-------------------|--------------------------|


A5II E5
+E E E E E E E E E E E E E E E E
| | | | | | | | | | | | | | | |
/ / / / / / / / / / / / / / o /

+E E E E Q E E S +E S E E E E E E
|-------------------|---------------------------------|
|-(0)-0-0-0-0---2-4-|------------------------15-15b17-|
|-(4)-4-2-2-1---2-4-|-----------------/4--------------|
|---------------4-4-|-2b4r(2)p==0-2-0-/4-/12----------|
|-------------------|---------------------------------|
|-------------------|---------------------------------|
|
| W W
|-------------------|---------------------------------|
|-------------------|---------------------------------|
|-------------------|---------------------------------|
|-------------------|---------------------------------|
|-------------------|---------------------------------|
|-------------------|---------------------------------|


W W
~~~~~
+Q a Q Q E +E S +S S S S S S S +Q E E
|------------------------------------------|---------------------------------------------------|
|-(15)---15pb17r(15)----------------------|-------------------------14s=12-(12)---------------|
|-----------------------14b16---14b16r(14)-|-14b16r(14)p12------------------------------6b7====|
|------------------------------------------|---------------14s12s14-(14)s12-(12)---------------|
|------------------------------------------|---------------------------------------------------|
|------------------------------------------|---------------------------------------------------|
|
| Gtr II
| E E E E E E E E +E E E E E E E E
|------------------------------------------|---------------------------------------------------|
|------------------------------------------|---------------------------------------------------|
|------9----------7------7----9---------9--|-(9)----------------------------------------4------|
|--(2)-9----------7------7----9---------9--|-(9)---------9-----7------------------------4------|
|--(2)-7----------7---9----------0------7--|-(7)---------7-----7------------------------2------|
|--(0)----------------------------------0--|-(0)----------------------0-------3b4-3b4-0--------|


E +E E E +E +E E E E +E E E +E +E Q
|--------------------------------|----------------------------|
|--------------------------------|----------------------------|
|-(6)r(6)-4----------------------|----------------------------|
|-----------6pb7==(6)r(6)-4------|----------------------------|
|---------------------------4b5==|=(4)r(4)-2------------------|
|--------------------------------|-----------4b5==(4)r(4)-0---|
|
| +Q q E E E E +E E E E Q Q
|--------------------------------|----------------------------|
|--------------------------------|----------------------------|
|-(4)-----4--------4---4----4----|-(4)--4--4-4-----4----------|
|-(4)-----4--------4---4----4----|-(4)--4--4-4-----4----------|
|-(2)-----2--------2---2----2----|-(2)--2--2-2-----2------7--|
|-------------------------0------|----------------------------|


~~~~~~~~~~~~~~~~~~~~~~
W +W
|-----------------|------------------||
|-----------------|------------------||
|-----------------|------------------||
|-----------------|------------------||
|-----------------|------------------||
|-2---------------|-(2)--------------||
|
| E E E E E E E E E E E E E E Q
|-----------------|------------------||
|-----------------|------------------||
|-----------------|------------------||
|-4-4-4-4-4-4-4-4-|--4--2-4-2-4-2-4--||
|-4-4-4-4-4-4-4-4-|--4--2-4-2-4-2-4--||
|-2-2-2-2-2-2-2-2-|--2--0-2-0-2-0-2--||


W E H.. Q Q H H Q E E
|----------|----------------|-----------------------|-------------(29)-|
|-4--------|-----4s=========|===x-------------------|------------------|
|-4--------|-----4S=========|===x-------------------|------------------|
|-4--------|-----4s=========|===x-------------------|------------------|
|-2--------|----------------|-----------------------|------------------|
|----------|----------------|-----------------------|------------------|
|
| W +H. Q H.. S S W
|----------|----------------|-^<3>----------<3>-----|-(3)--------------|
|----------|----------------|-^<3>--------------<3>-|-(3)--------------|
|----------|----------------|-^<3>------------------|-<3>--------------|
|-1--------|-(1)------------|-----------------------|------------------|
|-2--------|-(2)------------|-----------------------|------------------|
|----------|----------------|-----------------------|------------------|


Gtr I
Q. E +E Q. Q +S E. H
|-(29)S==(28)-(28)S(27)S====|=(28)----(28)S(26)-24s==========|
|---------------------------|--------------------------------|
|---------------------------|--------------------------------|
|---------------------------|--------------------------------|
|---------------------------|--------------------------------|
|---------------------------|--------------------------------|
|
| Gtr II
| ~~~~~~~~~~~~
| H Q E E Q Q Q. S S
|---------------------------|--------------------------------|
|---------------------------|--------------------------------|
|---------------------------|----------------------------x-x-|
|---------------------------|----------------------------x-x-|
|---------------------------|----------------------------x-x-|
|-------------------------3s|==12------12-------10----------|
|
| Gtr III
| W Q a H Q
|---------------------------|--------------------------------|
|---------------------------|--------------------------------|
|---------------------------|----------<7>-----------<7>-----|
|---------------------------|-------x------------------------|
|---------------------------|--------------------------------|
|---------------------------|--------------------------------|


W
|-19----------------------------------------|
|--------------------------------------------|
|--------------------------------------------|
|--------------------------------------------|
|--------------------------------------------|
|--------------------------------------------|
|
| S +S S S S S S S E E Q
|--------------------------------------------|
|--2b3==(2)r(2)p0---------/2b3---------------|
|--2b3==(2)r(2)p0---------/2b3---------------|
|-----------------2-1-0h1--------------------|
|--------------------------------------------|
|--------------------------------------------|
|
| PM--------------------------------------|
| S S S S S S S S S S S S S S S S
|--------------------------------------------|
|--------------------------------------------|
|--------------------------------------------|
|--------------------------------------------|
|--7-----7---7--6-6-6-6-5--5---5-4-4-3-3-2-2-|
|--------------------------------------------|


Gtr. 1 & 2 ad lib slides
PM-------------------------------
S S S S S S S S S S S S S S S S
|---------------------------------|
|---------------------------------|
|---------------------------------|
|---------------------------------|
|-7-7-7-7-6-6-6-5-5-5-4-4-3-3-2-2-|
|---------------------------------|


-----------------------------------------------------------------|
S S S S S S S S S S S S S S S S S S S S S S S S S S S S S S S S
|---------------------------------|---------------------------------|
|---------------------------------|---------------------------------|
|---------------------------------|---------------------------------|
|-5-5-5-5-4-4-4-3-3-3-2-2-1-1-0-0-|-5-5-5-5-4-4-4-3-3-3-2-2-1-1-0-0-|
|-7-7-7-7-6-6-6-5-5-5-4-4-3-3-2-2-|-7-7-7-7-6-6-6-5-5-5-4-4-3-3-2-2-|
|---------------------------------|---------------------------------|


PM-------------------------------
S S S S S S S S S S S S S S S S
|---------------------------------|
|---------------------------------|
|---------------------------------|
|-6-6-6-6-5-5-5-4-4-4-3-3-2-2-1-1-|
|-7-7-7-7-6-6-6-5-5-5-4-4-3-3-2-2-|
|---------------------------------|


-----------------------------------------------------------------|
S S S S S S S S S S S S S S S S S S S S S S S S S S S S S S S S
|---------------------------------|---------------------------------|
|---------------------------------|---------------------------------|
|---------------------------------|---------------------------------|
|-6-6-6-6-5-5-5-4-4-4-3-3-2-2-1-1-|-6-6-6-6-5-5-5-4-4-4-3-3-2-2-1-1-|
|-7-7-7-7-6-6-6-5-5-5-4-4-3-3-2-2-|-7-7-7-7-6-6-6-5-5-5-4-4-3-3-2-2-|
|---------------------------------|---------------------------------|


PM----------------------------|
S S S S S S S S S S S S S S S S Q Q Q Q Q Q Q E E
|---------------------------------|-------------|---------------||
|---------------------------------|-------------|---------------||
|---------------------------------|-------------|-7--6--7--8----||
|-6-6-6-6-5-5-5-4-4-4-3-3-2-2-1-1-|-4--3--4--5--|-7--6--7--8----||
|-7-7-7-7-6-6-6-5-5-5-4-4-3-3-2-2-|-4--3--4--5--|-5--4--5--6p0--||
|---------------------------------|-2--1--2--3--|---------------||


Q Q Q Q Q Q Q Q
||--------------|-------------|
||o-------------|-------------|
||--5-----------|-7-----------|
||--5-----------|-7-----------|
||o-3--2--------|-5--4--------|
||--------5--3--|-------7--5--|


PM~~~~~~~
E E E S S +S S E E E e e E S S +S S E E E 3x
|-----------------------|-------------------------||
|-----------------------|------------------------o||
|-9-9-------------------|-------------------------||
|-9-9-------------------|-------------------------||
|-7-7-5-----------------|-7-7-5------------------o||
|-------6-6-(6)s5-5-3-0-|-------6-6-(6)s5-5-3-0---||


Q Q Q Q Q Q Q Q E. S +E E +S E. E E
|-------------|-------------|-----------------------|
|-------------|-------------|-----------------------|
|-5-----------|-7-----------|-9--7-(7)--------------|
|-5-----------|-7-----------|-9--7-(7)-8-(8)-7--5---|
|-3--2--------|-5--4--------|-7--5-(5)-8-(8)-7--5---|
|-------5--3--|-------7--5--|----------6-(6)-5--3-0-|


E. S +E E Q Q +W
|---------------3--|-(3)----*|
|---------------3--|-(3)----*|
|-6--4-(4)-1----1--|-(1)----*|
|-7--5-(5)-2----2--|-(2)----*|
|-7--5-(5)-2----2--|-(2)----*|
|-5--3-(3)-0----0--|-(0)----*|


Duration Legend
---------------
W - whole; H - half; Q - quarter; E - 8th; S - 16th; T - 32nd; X - 64th; a - acciaccatura
+ - note tied to previous; . - note dotted; .. - note double dotted
Uncapitalized letters represent notes that are staccato (1/2 duration)
Irregular groupings are notated above the duration line
Duration letters will always appear directly above the note/fret number it represents the
duration for. Duration letters with no fret number below them represent rests. Multi-
bar rests are notated in the form Wxn, where n is the number of bars to rest for. Low
melody durations appear below the staff

Tablature Legend
----------------
h - hammer-on
p - pull-off
b - bend
pb - pre-bend
r - bend release (if no number after the r, then release immediately)
/ - slide into or out of (from/to "nowhere")
s - legato slide
S - shift slide
- natural harmonic
[n] - artificial harmonic
n(n) - tapped harmonic
~ - vibrato
tr - trill
T - tap
TP - trem. picking
PM - palm muting

/ - tremolo bar dip; n = amount to dip

- tremolo bar down
n/ - tremolo bar up
/n - tremolo bar inverted dip
= - hold bend; also acts as connecting device for hammers/pulls
<> - volume swell (louder/softer)
x - on rhythm slash represents muted slash
o - on rhythm slash represents single note slash

Misc Legend
-----------
| - bar
|| - double bar
||o - repeat start
o|| - repeat end
*| - double bar (ending)
: - bar (freetime)
$ - Segno
& - Coda
Tempo markers - = BPM(8/16=s8/s16), where s8 = swing 8ths, s16 = swing 16ths