Stop Censorship
 
 

 
 1-9 a b c d e f g h i j k l m n o p q r s t u v w x y z
   Guns N Roses - You Aint The First Tab    

tune your guitar down a half step

------------------------|----------------------|---------0----0---2----|
------------12-----14---|--9----------2----0---|-2---------------------|
--13--------------------|----------------------|-----------------------|
------------------------|----------------------|-----------------------|
------------------------|----------------------|-----------------------|
------------------------|----------------------|-----------------------|
I tried so hard just to get through to you

A E A
--0---------------------|----------------------|-----------------------|
------------------------|-----------12----14---|--9-----------2----0---|
------------------------|---13-----------------|-----------------------|
------------------------|----------------------|-----------------------|
------------------------|----------------------|-----------------------|
------------------------|----------------------|-----------------------|
But your head`s so far from the


E A E
-----------0------2-----|-0--------------------|---9---7---------------|
---2--------------------|----------------------|---------9---7--9---7--|
------------------------|----------------------|-----------------------|
------------------------|----------------------|-----------------------|
------------------------|----------------------|-----------------------|
------------------------|----------------------|-----------------------|

real - ness of truth Was it just a come on
A E
-------------0----------|--------0------2------|--0----------------9---|
---9---7----------------|--2-------------------|-----------------------|
------------------------|----------------------|-----------------------|
------------------------|----------------------|-----------------------|
------------------------|----------------------|-----------------------|
------------------------|----------------------|-----------------------|

in the dark, wasn`t meant to last long I

E A E
--9---7-----------------|-------------0--------|----------0------2-----|
--------9---7--9---7----|---9---7--------------|--2--------------------|
------------------------|----------------------|-----------------------|
------------------------|----------------------|-----------------------|
------------------------|----------------------|-----------------------|
------------------------|----------------------|-----------------------|

think you`re worn your welcome, honey l`ll just sing you a -

A
--0---------------------|-------------2-4------|--------0--------------|
------------------------|----------------------|-----------------------|
------------------------|----------------------|-----------------------|
------------------------|----------------------|-----------------------|
------------------------|----------------------|-----------------------|
------------------------|----------------------|-----------------------|

long As l sing you this song




-------------------------|--12-----------------|-----------------------|
----------------11---12--|---------------------|--11--12---11------10--|
-------------------------|---------------------|-----------------------|
-------------------------|---------------------|-----------------------|
-------------------------|---------------------|-----------------------|
-------------------------|---------------------|-----------------------|

One, Two, Three, One,

-------------------------|--0------------------|-----------------------|
---------14----12--------|---------------------|--14--12---------------|
--------------------13---|---------------------|-------------------11--|
-------------------------|---------------------|-----------------------|
-------------------------|---------------------|-----------------------|
-------------------------|---------------------|-----------------------|


-------------------------|
-------------------------|
--13---------------------|
-------------------------|
-------------------------|
-------------------------|

Two Three and So,

Chorus

E G# A^ B
Good-bye to you, girl. So long, fare-well

E G# A^ B
I cant hear ya cryin` Your jivin`s been hell

E G# A^ E
So Look for me Walkin` down your street at night

G# A^ B
I`ll be in with another deep down in - side

A G# F#m E
Deep down in - side