Stop Censorship
 
 

 
 1-9 a b c d e f g h i j k l m n o p q r s t u v w x y z
   Headstones - Who The Hell Do You Think You Are Tab    

Who the Hell Do You Think You Are- Headstones

Tuning: EADGBe

This is an awesome song from "Hard core logo" whis was done, obviously,
by the Headstones. The whole song is played with distortion.
I`m not a "solo" type of guy, so i didn`t tab the solo!

Intro/Verse
e|----------------------------------------------------------------
B|----------------------------------------------------------------
G|----------------------------------------------------------------
D|-7-7-7-7-7-7-7-7-7-7-7-7-7-7-7-7-7-7-7-7-7-7-7-7-7-7-7-7-7-7-7-7
A|-5-5-5-5-5-5-5-5-5-5-5-5-5-5-5-5-5-5-5-5-5-5-5-5-3-3-3-3-3-3-3-3
E|---------------------------------6-6-6-6-6-6-6-6----------------

Chorus (Also played over solo)
e|-------------------------------------------------
B|-------------------------------------------------
G|-------------------------------------------------
D|-7-7-7-7-7-7-9-10-11-12-12-12-12-12-7-7-7-7-7-7--
A|-5-5-5-5-5-5-7-8--9--10-10-10-10-10-5-5-5-5-5-5--
E|-------------------------------------------------
"Who the hell you think you are"

Post Chorus thing? x3
e|------------------------------|-------------
B|------------------------------|-------------
G|------------------------------|-------------
D|-11/12-12-11/12-12-11--7-xx-7-|-5----2-2-2--
A|-9-/10-10-9-/10-10-9---5-xx-5-|-3----0-0-0--
E|------------------------------|-------------

Sequence:
Intro/Verse X7
Chorus X2
Post Chorus X1
Verse X4
Chorus X2
Post Chorus X1
Solo
Chorus (over solo) X4
Verse X4
Chorus X2
Post Chours X1
Chorus X4