Stop Censorship
 
 

 
 1-9 a b c d e f g h i j k l m n o p q r s t u v w x y z
   Headstrong - Adriana Tab    

Headstrong – Adriana
Self-Titled Album

Tuning: Drop D

Intro:
E|---------------------------1-------------------
B|--3-1---3-1--------------3-----1---------------
G|---------------------2-------2----repeat-------
D|0-----0--------0---3---3------------4x---------
A|-----------------------------------------------
D|-----------------------------------------------

Verse:
E|--------------------------1--------------------
B|------------------------3------1---------------
G|---------2----------2-------2------------------
D|-0---3-----3--0---3---3------------------------
A|-----------------------------------------------
D|-----------------------------------------------

High part before pre-chorus
E|-----5-------over and over---------------------
B|-3-3---------fool with this--------------------

Pre-Chorus
(“Take a second and thank the rest of your life...)
E|-----------------------------------------------
B|-----------------------------------------------
G|-----------------------------------------------
D|12/0—-5-3-0-3-5-3-0-3--------------------------
A|12/0--5-3-0-3-5-3-0-3--------------------------
D|12/0--5-3-0-3-5-3-0-3--------------------------

Chorus:
E|-----------------------------------------------
B|-----------------------------------------------
G|-----------------------------------------------
D|-0--3-5-12--3-5-10--0-3-5----------------------
A|-0--3-5-12--3-5-10--0-3-5----------------------
D|-0--3-5-12--3-5-10--0-3-5----------------------

Interlude before bridge:
(“Stop screaming...)
E|-----------------------------------------------
B|-----------------------------------------------
G|-----2-----2-------repeat a--------------------
D|-0-3---0-3---7-7---few times-------------------
A|-------------7-7-------------------------------
D|-------------7-7-------------------------------

Bridge:
E|-----------------------------------------------
B|-----------------------------------------------
G|--------------listen to the song---------------
D|-9-------8----for the chord changes------------
A|-9-------8-------------------------------------
D|-9-------8-------------------------------------

Lyrics:
Adriana you never saw it coming
No time to think, much less react to the knife in your
Back

Go burn a hole in the world, start walking
I`ll be the one when I`m done double talking to you

Take a second now, thank the rest of your life
What`s integrity when you can ooze on through the
Other side?

If I put my mind to it I can figure it out
if I put my mind to it I can figure it out
if I put my mind to it I can figure it out
if I put my mind to it I can figure it out

Swarmed without end, how can you even pretend?
I`ll stay you go. Outside that I just don`t know…

Go burn a hole in the world start walking
I`ll be the one when I`m done double talking to you

Take a second now, take the rest of your life
What`s integrity when you can ooze on through to the
Other side?

If I put my mind to it I can figure it out
If I put my mind to it I can figure it out
If I put my mind to it I can figure it out
If I put my mind to it I can figure it out

Everyone stop screaming
Just wrap your teeth around me
And hold me to this line
These scars are ours for all time
(The next time you see, you`ll see it will not be me
The next time you see, you`ll see it will not be me)

Take a second now, take the rest of your life
What`s integrity when you can ooze on through to the
Other side?

If I put my mind to it I can figure it out
If I put my mind to it I can figure it out
If I put my mind to it I can figure it out
If I put my mind to it I can figure it out…