Stop Censorship
 
 

 
 1-9 a b c d e f g h i j k l m n o p q r s t u v w x y z
   Hoobastank - Crawling In The Dark Tab    

This is a great song, and one of my first tabs, so bear with me.

I play this in standard tuning.

Intro
|-------------------------------------------------|
|-------------------------------------------------|
|-------------------------------------------------|
|----------11----12----11-----------------------9-|
|-9--9--9-----9-----9-----9--12-9--11--7--7--7----|
|-------------------------------------------------|
2x - Clean (with reverb/echo effect)

|---------------------------|
|---------------------------|
|---------------------------|
|-------------------9-------|
|-9--9--9--12-9--11----11-7-|
|---------------------------|
Clean (with reverb/echo effect)

|-----------------|
|-----------------|
|------7--6--2----|
|-2/4--7--6--2--2-|
|-2/4--5--4--0--2-|
|-0/2-----------0-|
3x - Medium-heavy distortion

|----------------|
|----------------|
|-2--2--2--------|
|-2--2--2--6-6-6-|
|-0--0--0--6-6-6-|
|----------4-4-4-|
Medium-heavy distortion

Intro 6x

|-----------------------------------------------------------------------------|
|-----------------------------------------------------------------------------|
|------7--6--2----------7--6--2------7--7--7--7--9-9-9-9--7--7--7--7--9-9-9-9-|
|-2/4--7--6--2--2--2/4--7--6--2--2---7--7--7--7--9-9-9-9--7--7--7--7--9-9-9-9-|
|-2/4--5--4--0--2--2/4--5--4--0--2---5--5--5--5--7-7-7-7--5--5--5--5--7-7-7-7-|
|-0/2-----------0--0/2-----------0--------------------------------------------|
Medium-heavy distortion

Intro 6x

|-----------------------------------------------------------------------------|
|-----------------------------------------------------------------------------|
|------7--6--2----------7--6--2------7--7--7--7--9-9-9-9--7--7--7--7--9-9-9-9-|
|-2/4--7--6--2--2--2/4--7--6--2--2---7--7--7--7--9-9-9-9--7--7--7--7--9-9-9-9-|
|-2/4--5--4--0--2--2/4--5--4--0--2---5--5--5--5--7-7-7-7--5--5--5--5--7-7-7-7-|
|-0/2-----------0--0/2-----------0--------------------------------------------|
Medium-heavy distortion

|--------------------------|
|--------------------------|
|--------------------------|
|-2/4--2/4--2/4--2/4--4--5-|
|-2/4--2/4--2/4--2/4--4--5-|
|-0/2--0/2--0/2--0/2--2--3-|
4x - Medium-heavy distortion

|------------------------------|
|------------------------------|
|-9--9--9--9--9--9--9--9--6--7-|
|-9--9--9--9--9--9--9--9--6--7-|
|-7--7--7--7--7--7--7--7--4--5-|
|------------------------------|
Medium-heavy distortion

|------------------------------|
|------------------------------|
|-9--9--9--9--9--9--9--9--11-9-|
|-9--9--9--9--9--9--9--9--11-9-|
|-7--7--7--7--7--7--7--7--9--7-|
|------------------------------|
Medium-heavy distortion

|------------------------------|
|------------------------------|
|-9--9--9--9--9--9--9--9--6--7-|
|-9--9--9--9--9--9--9--9--6--7-|
|-7--7--7--7--7--7--7--7--4--5-|
|------------------------------|
Medium-heavy distortion

Intro 2x

|------------------------------------------|
|------------------------------------------|
|-7--7--7--7--9-9-9-9--7--7--7--7--9-9-9-9-|
|-7--7--7--7--9-9-9-9--7--7--7--7--9-9-9-9-|
|-5--5--5--5--7-7-7-7--5--5--5--5--7-7-7-7-|
|------------------------------------------|
Medium-heavy distortion

|-----------------------------------------------------------------------------|
|-----------------------------------------------------------------------------|
|------7--6--2----------7--6--2------7--7--7--7--9-9-9-9--7--7--7--7--9-9-9-9-|
|-2/4--7--6--2--2--2/4--7--6--2--2---7--7--7--7--9-9-9-9--7--7--7--7--9-9-9-9-|
|-2/4--5--4--0--2--2/4--5--4--0--2---5--5--5--5--7-7-7-7--5--5--5--5--7-7-7-7-|
|-0/2-----------0--0/2-----------0--------------------------------------------|
Medium-heavy distortion

|-----------------|
|-----------------|
|------7--6--2----|
|-2/4--7--6--2--2-|
|-2/4--5--4--0--2-|
|-0/2-----------0-|
4x - Medium-heavy distortion