Stop Censorship
 
 

 
 1-9 a b c d e f g h i j k l m n o p q r s t u v w x y z
   Hoobastank - Crawling In The Dark Tab    

great song! tuning in Dropped-D

Intro:-delay and slight flange or chorus
D:-------11---12---11---9----7--------9--
A:-9-9-9----9----9----9---9----7-7-7-----play that a few times then play this

D:--------7---6---9---7---6---7---
A:-5-5-5----5---5---5---5---5-----
then it goes into the chorus
G:------------------7-6------------
D:-2-4-4-4--2-4-4-4-7-6-7-2-2-2-2--
A:-2-4-4-4--2-4-4-4-5-4-7-2-2-2-2--
D:-2-4-4-4--2-4-4-4-----7-2-2-2-2--
there are 2 parts to the second part of the chorus you can play either way and it sounds alright
Guitar 1:
D:-0-0-0-0-0-0-0-0--2-2-2-2-2-2-2-2---
A:-0-0-0-0-0-0-0-0--2-2-2-2-2-2-2-2---
D:-0-0-0-0-0-0-0-0--2-2-2-2-2-2-2-2---
Guitar 2:
G:-7-7-7-7-7-7-7-7--9-9-9-9-9-9-9-9---
D:-7-7-7-7-7-7-7-7--9-9-9-9-9-9-9-9---
A:-5-5-5-5-5-5-5-5--7-7-7-7-7-7-7-7---

Bridge:
D:-2-4-- --5--
A:-2-4-- --5--
D:-2-4-- --5--
other part of bridge-(listen to song to hear how many times u play each note)
G:---------------------2-------------------
D:--0---2--4----0---2--2---0---2--4----0---
A:--0---2--4----0---2--0---0---2--4----0---
D:--0---2--4----0---2------0---2--4----0---
then a quieter guitar 2 plays this at the end of the bridge
G:-9-9-9-11-11-11-13-13-13---
D:-x-x-x-x-x-x-x-x-x-x--x----
A:-7-7-7-9--9--9--11-11-11---
this is a great band and song, have fun-justin