Stop Censorship
 
 

 
 1-9 a b c d e f g h i j k l m n o p q r s t u v w x y z
   Hoobastank - Crawling In The Dark Tab    

Intro:

E------------------------------------
B------------------------------------
G------------------------------------
D--------11---12---9---7-----------9-
A--9-9-9----9----9---9---9---7-7-7--- X3
E------------------------------------
Slight PM............................

E--------------------------------
B--------------------------------
G--------------------------------
D--------7---6---9---7---6------- X1
A--5-5-5---5---5---5---5---5---7-
E--------------------------------
Slight PM........................

E----------------------------
B----------------------------
G-------------7-7-6----------
D---4---4-4--7-7-6--7--2--0- X3
A---4---4-4--5-5-4--7--2--0-
E---h2-2-2---------5--0--0-

E--------------------------------------
B--------------------------------------
G---7--7-7-7-7-7-7-7-------------------
D---7--7-7-7-7-7-7-7--7-7-7-7-7--2-2-2- X1
A---5--5-5-5-5-5-5-5--7-7-7-7-7--2-2-2-
E---------------------5-5-5-5-5--0-0-0-
Verse:

E------------------------------------
B------------------------------------
G------------------------------------
D--------11---12---9---7-----------9-
A--9-9-9----9----9---9---9---7-7-7--- X2
E------------------------------------
Slight PM...........................

E--------------------------------
B--------------------------------
G--------------------------------
D--------7---6---9---7---6------- X2
A--5-5-5---5---5---5---5---5---7-
E--------------------------------
Slight PM.......................

Chorus:

E----------------------------
B----------------------------
G-------------7-7-6----------
D---4---4-4--7-7-6--7--2--0- X2
A---4---4-4--5-5-4--7--2--0-
E---h2-2-2---------5--0--0-

E------------------------------------
B------------------------------------
G---7-7-7-7-7-7-7-7--9-9-9-9-9-9-9-9-
D---7-7-7-7-7-7-7-7--9-9-9-9-9-9-9-9- X2
A---5-5-5-5-5-5-5-5--7-7-7-7-7-7-7-7-
E------------------------------------

Mid-section:

E--------------------------------
B--------------------------------
G--------------------------------
D---2-4---2-4--2-4--2-4---2-4--5- X2
A---2-4---2-4--2-4--2-4---2-4--5-
E---0-2---0-2--0-2--0-2---0-2--3-

E--------------------------------------------------
B--------------------------------------------------
G--------------------------------------------------
D---2-4-4444-2-4-4444-2-4-44-2-4-4444--2-4--5-22-5- X2
A---2-4-4444-2-4-4444-2-4-44-2-4-4444--2-4--5-22-5-
E---0-2-2222-0-2-2222-0-2-22-0-2-2222--0-2--3-00-3- PM .... .... .. .... ..

Solo: Random harmonics up and down the the low D string,
along with some pick scraping

Bridge:

E--------------------------------------------------
B--------------------------------------------------
G---7-7-7-7-7-7-7-7-7-7-7-7-7-7-7-7----------------
D---7-7-7-7-7-7-7-7-7-7-7-7-7-7-7-7--6-6-6-6-6-6-4-
A---5-5-5-5-5-5-5-5-5-5-5-5-5-5-5-5--6-6-6-6-6-6-4-
E------------------------------------4-4-4-4-4-4-2-

E--------------------------------------------------
B--------------------------------------------------
G---7-7-7-7-7-7-7-7-7-7-7-7-7-7-7-7--9-9-9-9-9-9---
D---7-7-7-7-7-7-7-7-7-7-7-7-7-7-7-7--9-9-9-9-9-9-7-
A---5-5-5-5-5-5-5-5-5-5-5-5-5-5-5-5--7-7-7-7-7-7-7-
E------------------------------------------------5-

E--------------------------------------------------
B--------------------------------------------------
G---7-7-7-7-7-7-7-7-7-7-7-7-7-7-7-7----------------
D---7-7-7-7-7-7-7-7-7-7-7-7-7-7-7-7--6-6-6-6-6-6-4-
A---5-5-5-5-5-5-5-5-5-5-5-5-5-5-5-5--6-6-6-6-6-6-4-
E------------------------------------4-4-4-4-4-4-2-

E--------------------------------------------------
B--------------------------------------------------
G---7-7-7-7-7-7-7-7-7-7-7-7-7-7-7-7----------------
D---7-7-7-7-7-7-7-7-7-7-7-7-7-7-7-7--2-2-2-2-2-2-2-
A---5-5-5-5-5-5-5-5-5-5-5-5-5-5-5-5--2-2-2-2-2-2-2-
E------------------------------------0-0-0-0-0-0-0- PM .............

E------------------------------------
B------------------------------------
G------------------------------------
D--------11---12---9---7-----------9-
A--9-9-9----9----9---9---9---7-7-7--- X2
E------------------------------------
Slight PM...........................

Outro:

E------------------------------------
B------------------------------------
G---7-7-7-7-7-7-7-7--9-9-9-9-9-9-9-9-
D---7-7-7-7-7-7-7-7--9-9-9-9-9-9-9-9- X2
A---5-5-5-5-5-5-5-5--7-7-7-7-7-7-7-7-
E------------------------------------

E--------------------------- B---------------------------- G-------------7-7-6---------- D---4---4-4--7-7-6--7--2--0- X2 A---4---4-4--5-5-4--7--2--0- E---h2-2-2---------5--0--0-
E------------------------------------ B------------------------------------
G---7-7-7-7-7-7-7-7--9-9-9-9-9-9-9-9- D---7-7-7-7-7-7-7-7--9-9-9-9-9-9-9-9- X2 A---5-5-5-5-5-5-5-5--7-7-7-7-7-7-7-7- E------------------------------------ E---------------------------- B---------------------------- G-------------7-7-6---------- D---4---4-4--7-7-6--7--2--0- X2 A---4---4-4--5-5-4--7--2--0- E---h2-2-2---------5--0--0-

Song Structure:
Intro
Verse Chorus Verse Chorus
Mid-Section
Solo Bridge Outro