Stop Censorship
 
 

 
 1-9 a b c d e f g h i j k l m n o p q r s t u v w x y z
   Hoobastank - Divine Tab    

Tuning: Drop D - D A D G B e

e|------------------------------------------------|
B|------------------------------------------------|
G|---------11----------11-----------7----------4--|
D|------12----------11------------7----------5----|
A|----9-----------9--------0----5----------5------|
E|--9-----------9-------------5-------0--5--------|

e|------------------------------------------------|
B|------------------------------------------------|
G|--7---9-----------------------------------------|
D|--5---7-----------------------------------------|
A|--5---7-----------------------------------------|
E|--5---7-----------------------------------------|

e|--------3---------------------------------------|
B|--------3---------------------------------------|
G|--7--6--5--5--5--2--5--7------------------------|
D|--7--4--5--3--3--2--3--5------------------------|
A|--5--4--3--1--3--0--3--3------------------------|
E|-----4--------3--------3------------------------|

e|------------------------------------------------|
B|------------------------------------------------|
G|--11--11--7--7----------------------------------|
D|--12--11--7--9--0-------------------------------|
A|---9---9--5--5--0-------------------------------|
E|---9---9--5--5--0-------------------------------|

e|------------------------------------------------|
B|------------------------------------------------|
G|--6--7--7---------------------------------------|
D|--4--5--0---------------------------------------|
A|--4--5--0---------------------------------------|
E|--4--5--0---------------------------------------|

e|------------------------------------------------|
B|------------------------------------------------|
G|--11--9--7--4--2--------------------------------|
D|--11--9--7--4--2--------------------------------|
A|---9--7--5--2--0--------------------------------|
E|------------------------------------------------|


PLEASE TAKE TIME TO VISIT MY WEBSITE:

Free Backstage Passes To Concerts
http:/concerts.ticketguide.org