Stop Censorship
 
 

 
 1-9 a b c d e f g h i j k l m n o p q r s t u v w x y z
   Hoobastank - Escape Tab    

Hoobastank
Escape

Tabbed by brody05

Standard tuning

[intro]
|----------------------------------------------------------------------------|
|----------------------------------------------------------------------------|
|-------0--------0--------0--------0--------0--------0--------0--------0-----|
|-----3--------3--------3--------3--------3--------3-------------------------| x2
|-----------------------------------------------------------3--------3-------|
|-3-3------3-3------3-3------3-3------1-1------1-1------0-0------0-0---------|

[verse] (intro) x4

[chorus]
|----------------------------------------------------------------------------------|------|
|----------------------------------------------------------------------------------|------|
|-------------------------------5-5-5-5-5--------------------------------5-5-5-5-5-|------|
|-8-8-8-8-8-5-5-5-5-5-3-3-3-3-3-5-5-5-5-5--8-8-8-8-8-8-8-8-8-8-3-3-3-3-3-5-5-5-5-5-|--8>--|
|-6-6-6-6-6-5-5-5-5-5-3-3-3-3-3-3-3-3-3-3--6-6-6-6-6-8-8-8-8-8-3-3-3-3-3-3-3-3-3-3-|--6>--|
|-6-6-6-6-6-3-3-3-3-3-1-1-1-1-1------------6-6-6-6-6-6-6-6-6-6-1-1-1-1-1-----------|--6>--|

[verse] (intro) x4

[chorus]
|---------------------------------------------------------------------------------|
|---------------------------------------------------------------------------------|
|-------------------------------5-5-5-5-5-------------------------------5-5-5-5-5-|
|-8-8-8-8-8-5-5-5-5-5-3-3-3-3-3-5-5-5-5-5-8-8-8-8-8-8-8-8-8-8-3-3-3-3-3-5-5-5-5-5-| x2
|-6-6-6-6-6-5-5-5-5-5-3-3-3-3-3-3-3-3-3-3-6-6-6-6-6-8-8-8-8-8-3-3-3-3-3-3-3-3-3-3-|
|-6-6-6-6-6-3-3-3-3-3-1-1-1-1-1-----------6-6-6-6-6-6-6-6-6-6-1-1-1-1-1-----------|

then
|-------------------------|
|-------------------------|
|-------------------------|
|--6>----8>----6>----8>---|
|--6>----8>----6>----8>---|
|--4>----6>----4>----6>---|

[solo]
|--------------------------------------------------------------------------------------------------|
|-------------6-6-6--------------------------6-6-6--------------6-6-6-------6-6-6-6-6-9-9-9-9-9-9--|
|-8-8-8-7-7-7-------8-8-8-7-7-7-------7-7-7---------8-8-8-7-7-7-------8-8-8------------------------|
|-------------------------------8-8-8--------------------------------------------------------------|
|--------------------------------------------------------------------------------------------------|
|--------------------------------------------------------------------------------------------------|

[chorus]
|---------------------------------------------------------------------------------|
|---------------------------------------------------------------------------------|
|-------------------------------5-5-5-5-5-------------------------------5-5-5-5-5-|
|-8-8-8-8-8-5-5-5-5-5-3-3-3-3-3-5-5-5-5-5-8-8-8-8-8-8-8-8-8-8-3-3-3-3-3-5-5-5-5-5-| x4
|-6-6-6-6-6-5-5-5-5-5-3-3-3-3-3-3-3-3-3-3-6-6-6-6-6-8-8-8-8-8-3-3-3-3-3-3-3-3-3-3-|
|-6-6-6-6-6-3-3-3-3-3-1-1-1-1-1-----------6-6-6-6-6-6-6-6-6-6-1-1-1-1-1-----------|

[end]
|--------|
|--------|
|--------|
|---8>---|
|---6>---|
|---6>---|