Stop Censorship
 
 

 
 1-9 a b c d e f g h i j k l m n o p q r s t u v w x y z
   Hoobastank - Ksi Tab    

band:hoobastank
song:ksi
tabber:hippo34
tuning;drop d


e |-----------------------------------------------|
B |-----------------------------------------------|
G |---------------------------------------0-----0-|
D |-4---4---4---4-5-4-2-----------------0-----0---|
A |---------------------4-0-4^5-5^0---------------|
D |---0---0---0-----------------------0-----0-----|

e |--------------------|
B |--------------------|
G |--------------------|
D |-4--------4---------|
A |---0-4-5----0-4-5-0-|
D |--------------------| x3

Verse:
e |-----------------------------------------------|
B |-----------------------------------------------|
G |---------------------------------------0-----0-|
D |-4---4---4---4-5-4-2-----------------0-----0---|
A |---------------------4-0-4^5-5^0---------------|
D |---0---0---0-----------------------0-----0-----|


e |-----------------------------------------------|
B |-----------------------------------------------|
G |-12-12-12-11-11-11-9-9-9-7-7-7-7-9-7-----------|
D |-----------------------------------------------|
A |-----------------------------------------------|
D |-----------------------------------------------|


e |-----------------------------------------------|
B |-----------------------------------------------|
G |-----------------------------------------------|
D |-15-15-15-14-14-14-12-12-12-10-10-10-10-12-10--|
A |-----------------------------------------------|
D |-----------------------------------------------|


Chorus:
e |-------------------------------|
B |-------------------------------|
G |----------3--------------------|
D |----0--3--3--1-----------------|
A |----0--3--1--1-----------------|
D |----0--3-----1-----------------|