Stop Censorship
 
 

 
 1-9 a b c d e f g h i j k l m n o p q r s t u v w x y z
   Hoobastank - Let you know Tab    

#----------------------------------PLEASE NOTE--------------------------------#
#This file is the author`s own work and represents their interpretation of the#
#song. You may only use this file for private study, scholarship, or research.#
#-----------------------------------------------------------------------------#
#-- File created with Instab - http:/www.pconline.com/~smcarey/instab.html --#
#-----------------------------------------------------------------------------#

Author/Artist: Hoobastank
Title: Let You Know (Solo)
Album: Hoobastank
Transcribed by: Robert Karlsson
Email: bobbe@welho.com

-------7---7-7---|---------7---7---|--------------------|-------------------|-
-7---7-----------|---7---7---------|-------10---10-10---|---------10---10---|-
-----------------|-----------------|-9---9--------------|---9---9-----------|-
-----------------|-----------------|--------------------|-------------------|-
-----------------|-----------------|--------------------|-------------------|-
-----------------|-----------------|--------------------|-------------------|-
Guitar solo (1:54)

-----------------|-----------------|-----------------|-----------------|------
-----------------|-----------------|-----------------|-----------------|-7----
-------------6---|-------------6---|-------------7---|-------------7---|------
-------9---9-----|---------9-------|-7---7-9---9-----|---7---7-9-------|------
-7---7-----------|---7---7---------|-----------------|-----------------|------
-----------------|-----------------|-----------------|-----------------|------


---7---7-7---|---------7---7---|--------------------|-------------------|-----
-7-----------|---7---7---------|-------10---10-10---|---------10---10---|-----
-------------|-----------------|-9---9--------------|---9---9-----------|-----
-------------|-----------------|--------------------|-------------------|-----
-------------|-----------------|--------------------|-------------------|-7---
-------------|-----------------|--------------------|-------------------|-----


--------------|-----------------|-----------------|---------------------------
--------------|-----------------|-----------------|---------------------------
----------6---|-------------6---|-------------7---|---------------------------
----9---9-----|---------9-------|-7-----9---------|---------------------------
--7-----------|---7---7---------|-----------------|---------------------------
--------------|-----------------|-----------------|---------------------------