Stop Censorship
 
 

 
 1-9 a b c d e f g h i j k l m n o p q r s t u v w x y z
   Hoobastank - Never There Tab    

Never There by Hoobastank
-------------------------
I know most of Dan Estrin`s stuff is played in Open E tuning, but this seemed
to be a Drop-D tuning, so that is how i have done it. There is no timing down
and the song is not in order, but all the parts are there. Listen to the song
and just piece it all together.

Enjoy!

Drop-D Tuning

Intro
-----

1|-----------------------------------------|
2|-----------------------------------------|
3|-----------------------------------------| Repeat
4|------12------10-------------------------|
5|----------------------12------10-------9-|
6|-0-12----0-10----0-10----0-10----10-12---|
|p.m | |p.m | |p.m | |p.m | |p.m |


1|--------------------------------------|
2|--------------------------------------|
3|--------------------------------------|
4|--------------------------------------|
5|-----10-----10-----8-----8-------12---|
6|-0-8----0-8----0-7---0-7---10-12------|
|p.m| |p.m| |p.m| |p.m| |p.m |


1|-----------------------------------------|
2|-----------------------------------------|
3|-----------------------------------------|
4|------12------10------13------12------10-|
5|-----------------------------------------|
6|-0-12----0-10----0-13----0-12----0-10----|
|p.m | |p.m | |p.m | |p.m | |p.m |

Main Riff
---------

1|--------------------------------------|
2|--------------------------------------|
3|-----------------------------------12-| Repeat
4|-0-12-10-0-10-12-0-9-10-0-10-9-x-x----|
5|-0-12-10-0-10-12-0-9-10-0-10-9-x-x-10-|
6|-0-12-10-0-10-12-0-9-10-0-10-9-x-x----|

1|-------------------|
2|-------------------|
3|-10--10--10/12--12-|
4|-10--10--10/12--12-|
5|-8---8---8/-10--10-|
6|-8---8---8/-10--10-|

1|--------------------------------------|
2|--------------------------------------|
3|-----------------------------------12-|
4|-0-12-10-0-10-12-0-9-10-0-10-9-x-x----|
5|-0-12-10-0-10-12-0-9-10-0-10-9-x-x-10-|
6|-0-12-10-0-10-12-0-9-10-0-10-9-x-x----|

Verse
-----

1|-----------------------------------------|
2|-----------------------------------------|
3|-----------------------------------------| Repeat
4|------12------10-------------------------|
5|----------------------12------10-------9-|
6|-0-12----0-10----0-10----0-10----10-12---|
|p.m | |p.m | |p.m | |p.m | |p.m |


1|--------------------------------------|
2|--------------------------------------|
3|--------------------------------------|
4|--------------------------------------|
5|-----10-----10-----8-----8-------12---|
6|-0-8----0-8----0-7---0-7---10-12------|
|p.m| |p.m| |p.m| |p.m| |p.m |


1|-----------------------------------------|
2|-----------------------------------------|
3|-----------------------------------------|
4|------12------10------13------12------10-|
5|-----------------------------------------|
6|-0-12----0-10----0-13----0-12----0-10----|
|p.m | |p.m | |p.m | |p.m | |p.m |

Chorus
------

1|--------------------------------------|
2|--------------------------------------|
3|-----------------------------------12-| Repeat
4|-0-12-10-0-10-12-0-9-10-0-10-9-x-x----|
5|-0-12-10-0-10-12-0-9-10-0-10-9-x-x-10-|
6|-0-12-10-0-10-12-0-9-10-0-10-9-x-x----|

1|-------------------|
2|-------------------|
3|-10--10--10/12--12-|
4|-10--10--10/12--12-|
5|-8---8---8/-10--10-|
6|-8---8---8/-10--10-|

1|---------------------------------------|
2|---------------------------------------|
3|---------------------------------------|
4|-0-12-10-0-10-12-0-9-10-0-10-9-x-x-x-x-|
5|-0-12-10-0-10-12-0-9-10-0-10-9-x-x-x-x-|
6|-0-12-10-0-10-12-0-9-10-0-10-9-x-x-x-x-|

1|--------------------------------------|
2|--------------------------------------|
3|-----------------------------------12-| Repeat
4|-0-12-10-0-10-12-0-9-10-0-10-9-x-x----|
5|-0-12-10-0-10-12-0-9-10-0-10-9-x-x-10-|
6|-0-12-10-0-10-12-0-9-10-0-10-9-x-x----|

1|-------------------|----------------|
2|-------------------|----------------|
3|-10--10--10/12--12-|-8--8--8/10--10-|
4|-10--10--10/12--12-|-8--8--8/10--10-|
5|-8---8---8/-10--10-|-6--6--6/-8---8-|
6|-8---8---8/-10--10-|-6--6--6/-8---8-|

Breakdown
---------

1|---------------------------------------|
2|---------------------------------------|
3|---------------------------------------| Repeat
4|-0-10-12-0-13-12-0-10-12-0-13-12-0-3-5-|
5|-0-10-12-0-13-12-0-10-12-0-13-12-0-3-5-|
6|-0-10-12-0-13-12-0-10-12-0-13-12-0-3-5-|

1|---------------------------------------|
2|---------------------------------------|
3|---------------------------------------|
4|-0-10-12-0-13-12-0-10-12-0-13-12-0-10--|
5|-0-10-12-0-13-12-0-10-12-0-13-12-0-10--|
6|-0-10-12-0-13-12-0-10-12-0-13-12-0-10--|

Bridge
------

1|-----------------------------------|----------------------------------------|
2|-----------------------------------|----------------------------------------|
3|-----------------------------------|----------------------------------------|
4|-----------------------------------|----------------------------------------|
5|-----10-----10-----8-----8-----8---|------12------12-----10-----10-----10---|
6|-0-8----0-8----0-7---0-7---0-7-----|-0-10----0-10----0-9----0-9----0-9------|

1|-----------------------------------|----------------------------------------|
2|-----------------------------------|----------------------------------------|
3|-----------------------------------|----------------------------------------| repeat but
4|-----------------------------------|-0-10-12-0-13-12-0-10-12-0-13-12-0-3----| replace 4th bar
5|-----10-----10-----8-----8-----8---|-0-10-12-0-13-12-0-10-12-0-13-12-0-3----| as below
6|-0-8----0-8----0-7---0-7---0-7-----|-0-10-12-0-13-12-0-10-12-0-13-12-0-3----|

1|---------------------------------------|
2|---------------------------------------|
3|---------------------------------------| Repeat
4|-0-10-12-0-13-12-0-10-12-0-13-12-0-3-5-|
5|-0-10-12-0-13-12-0-10-12-0-13-12-0-3-5-|
6|-0-10-12-0-13-12-0-10-12-0-13-12-0-3-5-|

1|-----------------------------------------|
2|-----------------------------------------|
3|-----------------------------------------|
4|------12------10------13------12------10-|
5|-----------------------------------------|
6|-0-12----0-10----0-13----0-12----0-10----|

Outro
-----

1|-----------------------------------------|
2|-----------------------------------------|
3|-----------------------------------------| Repeat
4|------12------10------13------12------10-|
5|-----------------------------------------|
6|-0-12----0-10----0-13----0-12----0-10----|

1|------------------------------------------|
2|------------------------------------------|
3|------------------------------------------|
4|------12------10------13------12------10-|
5|--------------------------------------10-|
6|-0-12----0-10----0-13----0-12----0-10-10-|