Stop Censorship
 
 

 
 1-9 a b c d e f g h i j k l m n o p q r s t u v w x y z
   Hoobastank - Out Of Control Tab    

Hoobastank - Out Of Control

TABBED BY: theshinman77
This song is very easy. I tabbed out everything in rhythm so just play straight
through and use the lyric and time cues to help you. Good luck.

Tuning: Drop D [DADGBE]

Key: X = mute



INTRO [distortion]

[0:00]
E|-------------------------------------------------------------------|
B|-X-8-X-8-X-8-X-8-X-7-X-7-X-7-X-7-X-5-X-5-X-5-X-5-X-----------------|
G|-------------------------------------------------------------------|
D|---------------------------------------------------7-X-7-X-7-7-7-7-|
A|-X-7-X-7-X-7-X-7-X-7-X-7-X-7-X-7-X-5-X-5-X-5-X-5-X-7-X-7-X-7-7-7-7-|
D|---------------------------------------------------7-X-7-X-7-7-7-7-|



VERSE 1

[0:06] "I`ve done everything..." 3x
E|-------------------------------------------------------------------|
B|-X-8-X-8-X-8-X-8-X-7-X-7-X-7-X-7-X-5-X-5-X-5-X-5-X-----------------|
G|-------------------------------------------------------------------|
D|---------------------------------------------------7-X-7-X-7-7-7-7-|
A|-X-7-X-7-X-7-X-7-X-7-X-7-X-7-X-7-X-5-X-5-X-5-X-5-X-7-X-7-X-7-7-7-7-|
D|---------------------------------------------------7-X-7-X-7-7-7-7-|



PRECHORUS 1

[0:24] "I`m spinning..."
E|-----------------------------------------------------------------|
B|-----------------------------------------------------------------|
G|---------------------------5-5-5---------------------------------|
D|-2-2-2-4-5-4-2-2-2-4-5-4-2-5-5-5-2-2-2-4-5-4-2-2-2-4-5-4-2-3-3-3-|
A|-2-2-2-4-5-4-2-2-2-4-5-4-2-3-3-3-2-2-2-4-5-4-2-2-2-4-5-4-2-3-3-3-|
D|-2-2-2-4-5-4-2-2-2-4-5-4-2-------2-2-2-4-5-4-2-2-2-4-5-4-2-3-3-3-|



CHORUS 1

[0:30] "Where should I go?"
E|------------------------------------------------------------------------|
B|------------------------------------------------------------------------|
G|-------9-9-9-9-9---------12-12-12-12-12-----------------4-4-4-5-5-5-7-7-|
D|-2-2-X-----------10-10-X----------------5-5-5-5-5-5-5-5-4-4-4-5-5-5-7-7-|
A|-2-2-X-7-7-7-7-7-10-10-X-10-10-10-10-10-5-5-5-5-5-5-5-5-2-2-2-3-3-3-5-5-|
D|-2-2-X-----------10-10-X----------------5-5-5-5-5-5-5-5-----------------|

[0:37] "Cuz` I don`t know..."
E|----------------------------------------------------------------------------|
B|----------------------------------------------------------------------------|
G|-------9-9-9-9-9---------12-12-12-12-12-----------------7-7-7-7-11-11-12-12-|
D|-2-2-X-----------10-10-X----------------9-9-9-9-9-9-9-9-7-7-7-7-------------|
A|-2-2-X-7-7-7-7-7-10-10-X-10-10-10-10-10-9-9-9-9-9-9-9-9-5-5-5-5-9--9--10-10-|
D|-2-2-X-----------10-10-X----------------9-9-9-9-9-9-9-9---------------------|



BREAK [very dirty grungy distortion]

[0:42]
E|-0-0-0-0-0-0-0-0-0-0-0-0-0-0-0-0-|
B|-7-7-7-7-7-7-7-7-8-8-8-8-8-8-8-8-|
G|---------------------------------|
D|---------------------------------|
A|---------------------------------|
D|---------------------------------|



VERSE 2 [distortion]

[0:45] "I feel like..." 2x
E|-------------------------------------------------------------------|
B|-X-8-X-8-X-8-X-8-X-7-X-7-X-7-X-7-X-5-X-5-X-5-X-5-X-----------------|
G|-------------------------------------------------------------------|
D|---------------------------------------------------7-X-7-X-7-7-7-7-|
A|-X-7-X-7-X-7-X-7-X-7-X-7-X-7-X-7-X-5-X-5-X-5-X-5-X-7-X-7-X-7-7-7-7-|
D|---------------------------------------------------7-X-7-X-7-7-7-7-|

[0:57] "So let me know..."
E|-------------------------------------------------------------------|
B|-8-8-8-8-8-8-8-8-7-7-7-7-7-7-7-7-5-5-5-5-5-5-5-5-5-----------------|
G|-------------------------------------------------------------------|
D|---------------------------------------------------7-7-7-7-7-7-7-7-|
A|-7-7-7-7-7-7-7-7-7-7-7-7-7-7-7-7-5-5-5-5-5-5-5-5-5-7-7-7-7-7-7-7-7-|
D|---------------------------------------------------7-7-7-7-7-7-7-7-|



PRECHORUS 2

[1:03] "I`m spinning..."
E|-----------------------------------------------------------------|
B|-----------------------------------------------------------------|
G|---------------------------5-5-5---------------------------------|
D|-2-2-2-4-5-4-2-2-2-4-5-4-2-5-5-5-2-2-2-4-5-4-2-2-2-4-5-4-2-3-3-3-|
A|-2-2-2-4-5-4-2-2-2-4-5-4-2-3-3-3-2-2-2-4-5-4-2-2-2-4-5-4-2-3-3-3-|
D|-2-2-2-4-5-4-2-2-2-4-5-4-2-------2-2-2-4-5-4-2-2-2-4-5-4-2-3-3-3-|



CHORUS 2

[1:10] "Where should I go?"
E|------------------------------------------------------------------------|
B|------------------------------------------------------------------------|
G|-------9-9-9-9-9---------12-12-12-12-12-----------------4-4-4-5-5-5-7-7-|
D|-2-2-X-----------10-10-X----------------5-5-5-5-5-5-5-5-4-4-4-5-5-5-7-7-|
A|-2-2-X-7-7-7-7-7-10-10-X-10-10-10-10-10-5-5-5-5-5-5-5-5-2-2-2-3-3-3-5-5-|
D|-2-2-X-----------10-10-X----------------5-5-5-5-5-5-5-5-----------------|

[1:16] "Cuz` I don`t know..."
E|----------------------------------------------------------------------------|
B|----------------------------------------------------------------------------|
G|-------9-9-9-9-9---------12-12-12-12-12-----------------7-7-7-7-11-11-12-12-|
D|-2-2-X-----------10-10-X----------------9-9-9-9-9-9-9-9-7-7-7-7-------------|
A|-2-2-X-7-7-7-7-7-10-10-X-10-10-10-10-10-9-9-9-9-9-9-9-9-5-5-5-5-9--9--10-10-|
D|-2-2-X-----------10-10-X----------------9-9-9-9-9-9-9-9---------------------|

[1:22] "And I may never know..."
E|-------------------------------------------------------------------------|
B|-------------------------------------------------------------------------|
G|-------------------------------------------------------------------------|
D|-2-2-2-2-2-2-2-2-10-10-10-10-10-10-10-10-5-5-5-5-5-5-5-5-9-9-9-9-9-9-9-9-|
A|-2-2-2-2-2-2-2-2-10-10-10-10-10-10-10-10-5-5-5-5-5-5-5-5-9-9-9-9-9-9-9-9-|
D|-2-2-2-2-2-2-2-2-10-10-10-10-10-10-10-10-5-5-5-5-5-5-5-5-9-9-9-9-9-9-9-9-|

[1:28] "Where should I go?"
E|-------------------------------------------------------------------------|
B|-------------------------------------------------------------------------|
G|-------9-9-9-9-9---------12-12-12-12-12-----------------1414141414141414-|
D|-2-2-X-----------10-10-X----------------9-9-9-9-9-9-9-9------------------|
A|-2-2-X-7-7-7-7-7-10-10-X-10-10-10-10-10-9-9-9-9-9-9-9-9-1212121212121212-|
D|-2-2-X-----------10-10-X----------------9-9-9-9-9-9-9-9------------------|



PRECHORUS 3

[1:34] "It`s still a mystery!" 2X
E|-----------------------------------------------------------------|
B|-----------------------------------------------------------------|
G|---------------------------5-5-5---------------------------------|
D|-2-2-X-4-5-4-2-2-X-4-5-4-2-5-5-5-2-2-X-4-5-4-2-2-X-4-5-4-2-3-3-3-|
A|-2-2-X-4-5-4-2-2-X-4-5-4-2-3-3-3-2-2-X-4-5-4-2-2-X-4-5-4-2-3-3-3-|
D|-2-2-X-4-5-4-2-2-X-4-5-4-2-------2-2-X-4-5-4-2-2-X-4-5-4-2-3-3-3-|



BRIDGE

[1:46] "Spinning..." 3x [1:55] "Spinning..."
E|-------0-0-0-0-0-0-0-0-0-0-0-0-0-|-------0-0-0-0-0-0-X-------------|
B|-------5-5-5-5-5-5-3-3-3-6-6-6-6-|-------5-5-5-5-5-5-X-------------|
G|---------------------------------|---------------------------------|
D|-2-2-X---------------------------|-2-2-X---------------------------|
A|-2-2-X---------------------------|-2-2-X---------------------------|
D|-2-2-X---------------------------|-2-2-X---------------------------|



PRECHORUS 4

[1:58] "I`m spinning..." 2x
E|-----------------------------------------------------------------|
B|-----------------------------------------------------------------|
G|---------------------------5-5-5---------------------------------|
D|-2-2-2-4-5-4-2-2-2-4-5-4-2-5-5-5-2-2-2-4-5-4-2-2-2-4-5-4-2-3-3-3-|
A|-2-2-2-4-5-4-2-2-2-4-5-4-2-3-3-3-2-2-2-4-5-4-2-2-2-4-5-4-2-3-3-3-|
D|-2-2-2-4-5-4-2-2-2-4-5-4-2-------2-2-2-4-5-4-2-2-2-4-5-4-2-3-3-3-|



CHORUS 3

[2:10] "Where should I go?"
E|------------------------------------------------------------------------|
B|------------------------------------------------------------------------|
G|-------9-9-9-9-9---------12-12-12-12-12-----------------4-4-4-5-5-5-7-7-|
D|-2-2-X-----------10-10-X----------------5-5-5-5-5-5-5-5-4-4-4-5-5-5-7-7-|
A|-2-2-X-7-7-7-7-7-10-10-X-10-10-10-10-10-5-5-5-5-5-5-5-5-2-2-2-3-3-3-5-5-|
D|-2-2-X-----------10-10-X----------------5-5-5-5-5-5-5-5-----------------|

[2:17] "Cuz` I don`t know..."
E|----------------------------------------------------------------------------|
B|----------------------------------------------------------------------------|
G|-------9-9-9-9-9---------12-12-12-12-12-----------------7-7-7-7-11-11-12-12-|
D|-2-2-X-----------10-10-X----------------9-9-9-9-9-9-9-9-7-7-7-7-------------|
A|-2-2-X-7-7-7-7-7-10-10-X-10-10-10-10-10-9-9-9-9-9-9-9-9-5-5-5-5-9--9--10-10-|
D|-2-2-X-----------10-10-X----------------9-9-9-9-9-9-9-9---------------------|

[2:23] "And I may never know..."
E|-------------------------------------------------------------------------|
B|-------------------------------------------------------------------------|
G|-------------------------------------------------------------------------|
D|-2-2-2-2-2-2-2-2-10-10-10-10-10-10-10-10-5-5-5-5-5-5-5-5-9-9-9-9-9-9-9-9-|
A|-2-2-2-2-2-2-2-2-10-10-10-10-10-10-10-10-5-5-5-5-5-5-5-5-9-9-9-9-9-9-9-9-|
D|-2-2-2-2-2-2-2-2-10-10-10-10-10-10-10-10-5-5-5-5-5-5-5-5-9-9-9-9-9-9-9-9-|

[2:29] "Where should I go?"
E|-------------------------------------------------------------------------|
B|-------------------------------------------------------------------------|
G|-------9-9-9-9-9---------12-12-12-12-12-----------------1414141414141414-|
D|-2-2-X-----------10-10-X----------------9-9-9-9-9-9-9-9------------------|
A|-2-2-X-7-7-7-7-7-10-10-X-10-10-10-10-10-9-9-9-9-9-9-9-9-1212121212121212-|
D|-2-2-X-----------10-10-X----------------9-9-9-9-9-9-9-9------------------|



ENDING

[2:35] "I`m spinning..."
E|-----------------------------------------------------------------|
B|-----------------------------------------------------------------|
G|---------------------------5-5-5---------------------------------|
D|-2-2-2-4-5-4-2-2-2-4-5-4-2-5-5-5-2-2-2-4-5-4-2-2-2-4-5-4-2-3-3-3-|
A|-2-2-2-4-5-4-2-2-2-4-5-4-2-3-3-3-2-2-2-4-5-4-2-2-2-4-5-4-2-3-3-3-|
D|-2-2-2-4-5-4-2-2-2-4-5-4-2-------2-2-2-4-5-4-2-2-2-4-5-4-2-3-3-3-|