Stop Censorship
 
 

 
 1-9 a b c d e f g h i j k l m n o p q r s t u v w x y z
   Hoobastank - Out Of Control Tab    

Artist Hoobastank
Song Out of Control
Tabber Zerowing7301 aka luke meyer

Tunning (D,A,D,G,B,e)

Intro/Verse:
e|---------------------------------------------|
B|---------------------------------------------|
G|--12-12-12-12-11-11-11-11-9-9-9-9------------|
D|--12-12-12-12-11-11-11-11-9-9-9-9-7-7-7-7-7--|
A|----------------------------------7-7-7-7-7--|
D|---------------------------------------------|

Pre-Chorus:
e|---------------------------------------------------------------------|
B|---------------------------------------------------------------------|
G|----------------------------5-5-5------------------------------------|
D|--2-2--4-5-4-2---2--4-5-4-2-5-5-5---2-2--4-5-4-2---2--4-5-4-2-3-3-3--|
A|--2-2--4-5-4-2---2--4-5-4-2-3-3-3---2-2--4-5-4-2---2--4-5-4-2-3-3-3--|
D|--2-2--4-5-4-2---2--4-5-4-2---------2-2--4-5-4-2---2--4-5-4-2-3-3-3--|

Chorus:
e|----------0-0-0-0---------3-3-3-3------------------------------------|
B|---------------------------------------------------------------------|
G|------------------5-5-5-5-------------------------4-4-4-4-5-7--------|
D|--2-2-2-2---------5-5-5-5---------5-5-5-5-5-5-5-5-4-4-4-4-5-7--------|
A|--2-2-2-2---------3-3-3-3---------5-5-5-5-5-5-5-5-2-2-2-2-3-5--------|
D|--2-2-2-2-------------------------5-5-5-5-5-5-5-5--------------------|

Chorus:

e|---------------------------------------------------|
B|---------------------------------------------------|
G|----------------5~-5~-----------------------4~-4~--|
D|--2~-2~---------5~-5~---------5~-5~---------4~-4~--|
A|--2~-2~---------3~-3~---------5~-5~---------2~-2~--|
D|--2~-2~-----------------------5~-5~----------------|

Bridge:
e|---------------------------------------------------------------------|
B|---------------------------------------------------------------------|
G|----------------------------5-5-5------------------------------------|
D|--2-2--4-5-4-2---2--4-5-4-2-5-5-5---2-2--4-5-4-2---2--4-5-4-2-3-3-3--|
A|--2-2--4-5-4-2---2--4-5-4-2-3-3-3---2-2--4-5-4-2---2--4-5-4-2-3-3-3--|
D|--2-2--4-5-4-2---2--4-5-4-2---------2-2--4-5-4-2---2--4-5-4-2-3-3-3--|

Bridge:
e|------0-0-0-0-0-0-0-------1-1-1-1------------------------------------|
B|--------------------3-3-3--------------------------------------------|
G|---------------------------------------------------------------------|
D|--2-2----------------------------------------------------------------|
A|--2-2----------------------------------------------------------------|
D|--2-2----------------------------------------------------------------|