Stop Censorship
 
 

 
 1-9 a b c d e f g h i j k l m n o p q r s t u v w x y z
   Hoobastank - Pieces Tab    

Title: Pieces
Band: Hoobastank
Album: Hoobastank
Tuning: Standard (EDAGBe)
Tabbed by: simpleppl@hotmail.com

---------------------------------
| ~ - ring out ... - palm mute |
| / - slide up x - mute |
| - slide down |
---------------------------------

Intro.1
e|-------------------------------------------------------
B|-----12-----12-----12-----12-----12-----12-----12------
G|------9------9------9------9------9------9------9------
D|-------------------------------------------------------
A|-7-7----7-7----7-7----7-7----7-7----7-7----7-7---------
E|--------------------------------------------------12/--
... ... ... ... ... ... ...

e|---------------------------------------------------------------------
B|-----12-----12-----12-----12-----12-----12--12-12-12-12-12-12-12-12--
G|------9------9------9------9------9------9---9--9--9--9--9--9--9--9--
D|---------------------------------------------------------------------
A|---------------------------------------------------------------------
E|-0-0----0-0----0-0----0-0----0-0----0-0------0--0--0--0--0--0--0--0--
... ... ... ... ... ...

Intro.2
e|---------------------------------------------------------------------
B|----------------------------------------------------------12-----12--
G|-7/9-9-9-9-9-------------------------7/9-9-9-9-9-----------9------9--
D|-7/9-9-9-9-9-8-8-8-87-7-7-7-7-2-2-2-7/9-9-9-9-9-8-8-8---------------
A|-5/7-7-7-7-7-8-8-8-87-7-7-7-7-2-2-2-5/7-7-7-7-7-8-8-8---------------
E|-------------6-6-6-65-5-5-5-5-0-0-0-------------6-6-6-6-5----6-5----

e|--------------------------------------------------------------
B|--------------------------------------------------------------
G|-7/9-9-9-9-9-------------------------5-5-5-5------------------
D|-7/9-9-9-9-9-8-8-8-87-7-7-7-7-2-2-2-5-5-5-5-5-5-5-5-7-7-7-7--
A|-5/7-7-7-7-7-8-8-8-87-7-7-7-7-2-2-2-3-3-3-3-5-5-5-5-7-7-7-7--
E|-------------6-6-6-65-5-5-5-5-0-0-0-3-3-3-3-3-3-3-3-5-5-5-5--
... ... ... 2x

Verse
e|---------------------------------------------------------------------------------------
B|---------------------------------------------------------------------------------------
G|-7/9-9-9-9-9-------7/9-9-9-9-----------------7/9-9-9-9-9------5-5-5-5------------------
D|-7/9-9-9-9-9-8----7/9-9-9-9-8x--8-7x--8-7x--7/9-9-9-9-9-8---5-5-5-5-5-5-5-5-7-7-7-7--
A|-5/7-7-7-7-7-8----5/7-7-7-7-8x--8-7x--8-7x--5/7-7-7-7-7-8---3-3-3-3-5-5-5-5-7-7-7-7--
E|-------------6--------------6x--6-5x--6-5x--------------6---3-3-3-3-3-3-3-3-5-5-5-5--
... ... ... 2x

Chorus
e|------------------------------------------------------------------
B|------------------------------------------------------------------
G|---------------------------------5-5-5-5-5-5-5-5-5-5-5-5-5-5-5-5--
D|-2-2-2-2-2-2-2-2-2-2-2-2-2-2-2-2-5-5-5-5-5-5-5-5-5-5-5-5-5-5-5-5--
A|-2-2-2-2-2-2-2-2-2-2-2-2-2-2-2-2-3-3-3-3-3-3-3-3-3-3-3-3-3-3-3-3--
E|-0-0-0-0-0-0-0-0-0-0-0-0-0-0-0-0----------------------------------

e|------------------------------------------------------------------
B|------------------------------------------------------------------
G|---------------------------------5-5-5-5-5-5-5-5-7-7-7-7-7-7-7-7--
D|-7-7-7-7-7-7-7-7-7-7-7-7-7-7-7-7-5-5-5-5-5-5-5-5-7-7-7-7-7-7-7-7--
A|-7-7-7-7-7-7-7-7-7-7-7-7-7-7-7-7-3-3-3-3-3-3-3-3-5-5-5-5-5-5-5-5--
E|-5-5-5-5-5-5-5-5-5-5-5-5-5-5-5-5-----------------5-5-5-5-5-5-5-5--
2x

Tag
e|------------------------------------------------------------------
B|-----------------------------------------12-----12-----12-----12--
G|-7/9-9-9-9-9------------------------------9------9------9------9--
D|-7/9-9-9-9-9-8-8-8-87-7-7-7-7-2-2-2------------------------------
A|-5/7-7-7-7-7-8-8-8-87-7-7-7-7-2-2-2-7-7----7-7----7-7----7-7-----
E|-------------6-6-6-65-5-5-5-5-0-0-0------------------------------
... ... ... ...

Bridge
e|----------------------------------------------------------
B|-----12-----12-----12-----12-----12-----12-----12-----12--
G|------9------9------9------9------9------9------9------9--
D|----------------------------------------------------------
A|-7-7----7-7----7-7----7-7----7-7----7-7----7-7----7-7-----
E|----------------------------------------------------------
... ... ... ... ... ... ... ...

e|------------------------------------------------------
B|-----12-----------12-----------12-----------12--------
G|------9-----7------9-----7------9-----7------9-----7--
D|------------9------------9------------9------------9--
A|------------------------------------------------------
E|-0-0----0-0---0-0----0-0---0-0----0-0---0-0----0-0----

e|------------------------------------------------------
B|-----12-----------12-----------12-----------12--------
G|------9-----7------9-----7------9-----7------9-----7--
D|------------9------------9------------9------------9--
A|------------------------------------------------------
E|-8-8----8-8---8-8----8-8---8-8----8-8---8-8----8-8----

e|------------------------------------------------------
B|-----12-----------12-----------12-----------12--------
G|------9-----7------9-----7------9-----7------9-----7--
D|------------9------------9------------9------------9--
A|------------------------------------------------------
E|-0-0----0-0---0-0----0-0---0-0----0-0---0-0----0-0----

e|------------------------------------------------------
B|-----12-----------12-----------12-----------12--------
G|------9-----7------9-----7------9-----7------9-----7-- different last
D|------------9------------9------------9------------9-- two notes
A|------------------------------------------------------
E|-8-8----8-8---8-8----8-8---8-8----8-8---8-8----8-8----

e|----------------------------------------------------------
B|-----12-----12-----12-----12-----12-----12-----12-----12--
G|------9------9------9------9------9------9------9------9--
D|----------------------------------------------------------
A|----------------------------------------------------------
E|-0-0----0-0----0-0----0-0----0-0----0-0----0-0----0-0-----
... ... ... ... ... ... ... ...

e|--------------------------------------------------
B|--------------------------------------------------
G|-5-5-5-5-5-5-5-5-5-5-5-5--------------------------
D|-5-5-5-5-5-5-5-5-5-5-5-5-5-5-5-5-5-5-5-5-5-5-5-5--
A|-3-3-3-3-3-3-3-3-3-3-3-3-5-5-5-5-5-5-5-5-5-5-5-5--
E|-3-3-3-3-3-3-3-3-3-3-3-3-3-3-3-3-3-3-2-2-2-2-2-2--
... ... ... ... ... ... ... ...

e|----------------------------------------------------------
B|-----12-----12-----12-----12-----12-----12-----12-----12--
G|------9------9------9------9------9------9------9------9--
D|----------------------------------------------------------
A|----------------------------------------------------------
E|-0-0----0-0----0-0----0-0----0-0----0-0----0-0----0-0-----
... ... ... ... ... ... ... ...

e|------------------------------------------------------
B|------------------------------------------------------
G|-5-5-5-5-5-5-5-5-5-5-5-5---------------7-7-7-7-7-7-7--
D|-5-5-5-5-5-5-5-5-5-5-5-5-5-5-5-5-5-5-5-7-7-7-7-7-7-7--
A|-3-3-3-3-3-3-3-3-3-3-3-3-5-5-5-5-5-5-5-5-5-5-5-5-5-5--
E|-3-3-3-3-3-3-3-3-3-3-3-3-3-3-3-3-3-3-3-5-5-5-5-5-5-5--
... ... ... ...


e|----------------------------------------------------
B|----------------------------------------------------
G|-9~----5~----7~-------------------------------------
D|-9~----5~----7~----5-5-5-5-5-5-5-5-7-7-7-7-7-7-7-7--
A|-7~----3~----5~----3-3-3-3-3-3-3-3-5-5-5-5-5-5-5-5--
E|-7~----3~----5~----3-3-3-3-3-3-3-3-5-5-5-5-5-5-5-5--
...........................

Outro
e|--------------------------------------------------------------------------
B|--------------------------------------------------------------------------
G|-7/9-9-9-9-9-------------------------7/9-9-9-9-9--------------------------
D|-7/9-9-9-9-9-8-8-8-87-7-7-7-7-2-2-2-7/9-9-9-9-9-8-8-8-87-7-7-7-7-2-2-2--
A|-5/7-7-7-7-7-8-8-8-87-7-7-7-7-2-2-2-5/7-7-7-7-7-8-8-8-87-7-7-7-7-2-2-2--
E|-------------6-6-6-65-5-5-5-5-0-0-0-------------6-6-6-65-5-5-5-5-0-0-0--

e|--------------------------------------------------------------------
B|--------------------------------------------------------------------
G|-7/9-9-9-9-9-------------------------7/9-9-9-9-9--------------------
D|-7/9-9-9-9-9-8-8-8-87-7-7-7-7-2-2-2-7/9-9-9-9-9-8-8-8--8-7-xx-8-7--
A|-5/7-7-7-7-7-8-8-8-87-7-7-7-7-2-2-2-5/7-7-7-7-7-8-8-8--8-7-xx-8-7--
E|-------------6-6-6-65-5-5-5-5-0-0-0-------------6-6-6--6-5-xx-6-5--


Intro.1 / Verse
Intro.2 / Chorus
Verse / Bridge
Chorus / Chorus
Tag / Outro