Stop Censorship
 
 

 
 1-9 a b c d e f g h i j k l m n o p q r s t u v w x y z
   Hoobastank - Pieces Tab    

#----------------------------------PLEASE NOTE--------------------------------#
#This file is the author`s own work and represents their interpretation of the#
#song. You may only use this file for private study, scholarship, or research.#
#-----------------------------------------------------------------------------#
#-- File created with Instab - http:/www.pconline.com/~smcarey/instab.html --#
#-----------------------------------------------------------------------------#

This is a great song which desereves to be tabbed right. I am positive this is correct. Put on distortion and a little Wah-Wah and ROCK ON!!!!!!!!!!

Standerd Open E Tuning


Intro Part 1 (slight P.M)
-----7-------|------------------|---------------------------------------------
-----8-------|---------0000000--|---------------------------------------------
-----9-------|---------0000000--|---------------------------------------------
-0-0---x6----|---------0000000--|---------------------------------------------
-------------|------------------|---------------------------------------------
-------------|------------------|---------------------------------------------

Intro part 2


-----------|--------------7--------7--|-----------|---------------------------
-----------|--------------8--------8--|-----------|---------------------------
-----------|--------------9--------9--|-----------|---------------------------
-7/999-----|-7/999----0-0----0--0-----|-7/999-----|-----------77--------------
-5/777-875-|-5/777-8------------------|-5/777-875-|-55x55--77-55--------------
-------653-|-------6------------------|-------653-|-33x33--55-----------------

Verse
---------|-------------|---------|---------------|----------------------------
---------|-------------|---------|---------------|----------------------------
---------|-------------|---------|---------------|----------------------------
-7/999---|7/999--------|-7/999---|-----------77--|----------------------------
-5/777-8-|5/777-8x8787-|-5/777-8-|-55x55--77-55--|----------------------------
-------6-|------6x6565-|-------6-|-33x33--55-----|----------------------------

Chorus
------------------------------------------------------------------------------
------------------------------------------------------------------------------
------------------------------------------------------------------------------
------------------------------------------------------------------------------
-22222---10101010--777777--55555--12121212------------------------------------
-00000---8-8-8-8---555555--33333--10101010------------------------------------

Order of song

Intro Part 1 x2
Intro part 2 x1
Verse x2
Chorus x3