Stop Censorship
 
 

 
 1-9 a b c d e f g h i j k l m n o p q r s t u v w x y z
   Hoobastank - Ready For You Tab    

Music X Tabs [http:/www.mxtabs.net]
BAND: Hoobastank
SONG: Ready For You
ALBUMS: Hoobastank (Self-titled Album)
TABBED BY: Andrew Nguyen
EMAIL: vietbboyraver@hotmail.com

Comment: Please play the tab all the way through to get the most accuracy. I put two different
verses for a reason. There are alos two guitar parts, so I put the 1st guitar parts on top and
the 2nd guitar parts on the bottom.

Key:

x - damp
^ - volume swell
~ - tremeloend
/ - slide up
h - hammer on

Standard Tuning: EADGBE

Guitar 1

Intro (Distortion)
E|-----|
B|-----|
G|-4-^-|
D|-4-^-|
A|-2-^-|
E|-----|

Pre-Verse (Distortion)
E|------------------------|
B|-4-~~-5-~~-5-7h-~~-5-~~-|
G|-4-~~-4-~~-4-4h-~~-4-~~-|
D|------------------------|
A|------------------------|
E|------------------------|

Verse 1 (Distortion)
E|---------------------------------------------------------------------|
B|---------------------------------------------------------------------|
G|-4------4----4---44-2------2----2---22-------------------------------|
D|-4------4----4---44-2------2----2---22-5------5----5---55-2------2---|
A|-2-xxxx-2-xx-2-x-22-0-xxxx-0-xx-0-x-00-5------5----5---55-2------2---|
E|---------------------------------------3-xxxx-3-xx-3-x-33-0-xxxx-0-xx|

E|---------------------------------------------------------------------|
B|---------------------------------------------------------------------|
G|-----------4------4----4---44-2------2----2---22---------------------|
D|-6-6-666-6-4------4----4---44-2------2----2---22-2------2----2---22--|
A|-----------2-xxxx-2-xx-2-x-22-0-xxxx-0-xx-0-x-00-2------2----2---22--|
E|-------------------------------------------------0-xxxx-0-xx-0-x-00--|

E|---------------------------------------------------------------------|
B|---------------------------------------------------------------------|
G|---------------------------------------------------------------------|
D|-5555555555----------------------------------------------------------|
A|-5555555555----------------------------------------------------------|
E|-3333333333-pick slide-----------------------------------------------|

Chorus (Distortion)
E|------------0000000000-0000000000------------------------------------|
B|------------0000000000-0000000000------------------------------------|
G|-4444444444-2222222222-1111111111------------------------------------|
D|-4444444444-2222222222-2222222222-55555-77777------------------------|
A|-2222222222-0000000000-2222222222-55555-77777------------------------|
E|-2222222222------------0000000000-33333-55555------------------------|

Verse 2 (Distortion)
E|---------------------------------------------------------------------|
B|--------------------2------2----3---32-------------------------------|
G|-4------4----4---44-2------2----2---22-------------------------------|
D|-4------4----4---44-2------2----2---22-5------5----5---55-2------2---|
A|-2-xxxx-2-xx-2-x-22-0-xxxx-0-xx-0-x-00-5------5----5---55-2------2---|
E|---------------------------------------3-xxxx-3-xx-3-x-33-0-xxxx-0-xx|

E|---------------------------------------------------------------------|
B|------------------------------2------2----3---32---------------------|
G|-----------4------4----4---44-2------2----2---22---------------------|
D|-6-6-666-6-4------4----4---44-2------2----2---22-2------2----2---22--|
A|-----------2-xxxx-2-xx-2-x-22-0-xxxx-0-xx-0-x-00-2------2----2---22--|
E|-------------------------------------------------0-xxxx-0-xx-0-x-00--|

E|---------------------------------------------------------------------|
B|---------------------------------------------------------------------|
G|---------------------------------------------------------------------|
D|-5555555555----------------------------------------------------------|
A|-5555555555----------------------------------------------------------|
E|-3333333333----------------------------------------------------------|

Chorus Extension (Distortion)
E|---------------------------------------------------------------------|
B|---------------------------------------------------------------------|
G|---------------------------------------------------------------------|
D|-55555-77777---------------------------------------------------------|
A|-55555-77777---------------------------------------------------------|
E|-33333-55555---------------------------------------------------------|

Bridge (Clean)
E|-0-0000-0-0000-0-0-0000-0-0000-0-0-0000-0-0000-0---------------------|
B|-0-0000-0-0000-0-0-0000-0-0000-0-0-0000-0-0000-0---------------------|
G|-4-4444-4-4444-4-4-4444-4-4444-4-4-4444-4-4444-4---------------------|
D|-4-4444-4-4444-4-4-4444-4-4444-4-4-4444-4-4444-4-5-5555-7777---------|
A|-2-2222-2-2222-2-0-0000-0-0000-0-2-2222-2-2222-2-5-5555-7777---------|
E|---------------------------------0-0000-0-0000-0-3-3333-5555---------|

Outro (Distortion)
E|---------------------------------------------------------------------|
B|-4-Let Ring----------------------------------------------------------|
G|-3-Let Ring----------------------------------------------------------|
D|-4-Let Ring----------------------------------------------------------|
A|-2-Let Ring----------------------------------------------------------|
E|---------------------------------------------------------------------|


Guitar 2

IntroPre-verse (Distortion)
E|---------------------------------------------------------------------|
B|---------------------------------------------------------------------|
G|-4-4-44-4-44-4-44-4--------------------------------------------------|
D|-4-4-44-4-44-4-44-4--------------------------------------------------|
A|-2-2-22-2-22-2-22-4--------------------------------------------------|
E|-2-2-22-2-22-2-22-2--------------------------------------------------|

3rd4th Chorus (Distortion)
E|---------------------------------------------------------------------|
B|---------------------------------------------------------------------|
G|---------------------------------------------------------------------|
D|---------------------------------------------------------------------|
A|-----9-7-6-----9-7-6---9-7-6-----5-4-4/7-----------------------------|
E|-3/7-------3/5-------0-------1/3-------------------------------------|

1st Chorus Extension
E|-----------------------------|
B|-----------------------------|
G|-----------------------------|
D|-----------------------------|
A|-4/5-9-7-7/10----------------|
E|-----------------------------|

2nd Chorus Extension
E|-----------------------------------------------------|
B|-----------------------------------------------------|
G|-----------------------------------------------------|
D|-----------------------------------------------------|
A|-4/5-9-7-7/10-7/9-12-10-10/14-12-14-16-12-14-~~~-----|
E|-----------------------------------------------------|


Song Order:
Intro x1
Pre-verse(Guitar12) x2
Verse 1 x1
Chorus x2
Pre-verse(Guitar12) x1
Verse 2 x1
Chorus x2
Chorus Extension x1
Pre-verse(Guitar12) x2
Chorus3rd Chorus x2
Bridge x1
Chorus4th Chorus x1
Chorus Extension2nd x2x1
Outro x1