Stop Censorship
 
 

 
 1-9 a b c d e f g h i j k l m n o p q r s t u v w x y z
   Hoobastank - Ready For You Tab    

#----------------------------------PLEASE NOTE--------------------------------#
#This file is the author`s own work and represents their interpretation of the#
#song. You may only use this file for private study, scholarship, or research.#
#-----------------------------------------------------------------------------#
#-- File created with Instab - http:/www.pconline.com/~smcarey/instab.html --#
#-----------------------------------------------------------------------------#

Author/Artist: Hoobastank
Title: Ready For You
Album: Hoobastank
Transcribed by: aguywithaguitar
Email: chocolateafro720@hotmail.com

EBEG#Be tuning

Intro
------------------------------------------------------------------------------
------------------------------------------------------------------------------
------------------------------------------------------------------------------
-11-11-11-11-11-12-12-12-12-12-12-12-14-14-14-14-14-14-14-12-12-12-12-12--11--
--0--0--0--0--0--0--0--0--0--0--0--0--0--0--0--0--0--0--0--0--0--0--0--0---0--
------------------------------------------------------------------------------


---------------------------------------------------------------|--------------
---------------------------------------------------------------|--------------
---------------------------------------------------------------|--------------
-11-11-11-11-12-12-12-12-12-12-14-14-14-14-14-14-14-12-12-12-12|--------------
--0--0--0--0--0--0--0--0--0--0--0--0--0--0--0--0--0--0--0--0--0|--------------
---------------------------------------------------------------|--------------

Verse
------------------------------------------------------------------------------
------------------------------------------------------------------------------
----------------------------------------5-----5-----5-5-5-5-----------6-------
-7---------7-----7-----7-7-7-7-5--------5-----5-----5-5-5-5-3---------3-------
-0-0-0-0-0-0-0-0-0-0-0-0-0-0-0-00-0-0-0-0-0-0-0-0-0-0-0-0-0-3---------3-------
------------------------------------------------------------3-3-3-3-3---3-3---
. . . . . . . . . . . . . . . . . . . . . .

------------------------------------------------------------------------------
------------------------------------------------------------------------------
-6-----6-6-6-6------------3-----12-12-12-12-12-12----------------------------
-3-----3-3-3-3-0----------0------------------------7---------7-----7-----7-7--
-3-----3-3-3-3-0----------0------9--9--9--9--9--9--0-0-0-0-0-0-0-0-0-0-0-0-0--
---3-3---------0--0-0-0-0---0-0-----------------------------------------------
. . . . . . . . . . . . . . . .

--------------------------------------------------------------------------|---
-----------------------------------5---------5-----5-----5----------------|---
---------------5-----5-----5-5-5-5-3---------3-----3-----3----------------|---
-7-7-5---------5-----5-----5-5-5-5-0---------0-----0-----0----------------|---
-0-0-0-0-0-0-0-0-0-0-0-0-0-0-0-0-0-0---------0-----0-----0---0---0--------|---
-----------------------------------0-0-0-0-0-0-0-0---0-0---0-0-2-3-/12---|---
. . . . . . . . . . . . . . . .



Chorus
----------------------------------0-0-0-0-0-0-0-0---------3-3-3-3-3-3-3-3-----
------------------5-5-5-5-5-5-5-5-5-5-5-5-5-5-5-5---------6-6-6-6-6-6-6-6-----
--7-7-7-7-7-7-7-7-8-8-8-8-8-8-8-8-3-3-3-3-3-3-3-3---------3-3-3-3-3-3-3-3-----
--7-7-7-7-7-7-7-7-7-7-7-7-7-7-7-7-0-0-0-0-0-0-0-0-2-2-2-2-3-3-3-3-3-3-3-3-----
--0-0-0-0-0-0-0-0-5-5-5-5-5-5-5-5-0-0-0-0-0-0-0-0-2-2-2-2-3-3-3-3-3-3-3-3-----
------------------5-5-5-5-5-5-5-5-0-0-0-0-0-0-0-0-2-2-2-2-3-3-3-3-3-3-3-3-----


--7--7--7--7--7--7--7--7-5-5-5-5-5-5-5-5-0-0-0-0-0-0-0-0---------3-3-3-3-3-3--
--7--7--7--7--7--7--7--7-8-8-8-8-8-8-8-8-5-5-5-5-5-5-5-5---------6-6-6-6-6-6--
-10-10-10-10-10-10-10-10-7-7-7-7-7-7-7-7-3-3-3-3-3-3-3-3---------3-3-3-3-3-3--
--7--7--7--7--7--7--7--7-5-5-5-5-5-5-5-5-0-0-0-0-0-0-0-0-2-2-2-2-3-3-3-3-3-3--
--7--7--7--7--7--7--7--7-5-5-5-5-5-5-5-5-0-0-0-0-0-0-0-0-2-2-2-2-3-3-3-3-3-3--
--7--7--7--7--7--7--7--7-5-5-5-5-5-5-5-5-0-0-0-0-0-0-0-0-2-2-2-2-3-3-3-3-3-3--


-3-3|-----3-3-----------------------------------------------------------------
-6-6|-----6-6-----------------------------------------------------------------
-3-3|-----3-3-----------------------------------------------------------------
-3-3|-2-2-3-3-----------------------------------------------------------------
-3-3|-2-2-3-3-----------------------------------------------------------------
-3-3|-2-2-3-3-----------------------------------------------------------------
for 2nd chorus

------------------------------------------------------------------------------
------------------------------------------------------------------------------
------------------------------------------------------------------------------
------------------------------------------------------------------------------
------------------------------------------------------------------------------
------------------------------------------------------------------------------

Order
Intro 1x
Verse 2x
Chorus 1x
Intro 1/2 x
Verse 1x
Chorus 1x
Intro 2x
Chorus 1x
Chorus clean 1/2 x
Chorus 1x
Intro 1/2 x