Stop Censorship
 
 

 
 1-9 a b c d e f g h i j k l m n o p q r s t u v w x y z
   Hoobastank - Running Away Tab    

Hoobastank-Running Away

The chorus is strange but dan played like that on leno!
if there is something that you don`t agreed please correct!


Drop d

Intro
|------------------------------------------------------------------------------|
|------------------------------------------------------------------------------|
|----------------------------------------------------------------------5-5-4-4-|
|-10-10-10-9--9-9-9-9--10-10-10-10--9-9-9-9--5-5-5-7--9-9-9-9--3-3-3-5-3-3-3-3-|
|--7--7--7-7--7-7-7-7---7--7--7--7--7-7-7-7--5-5-5-5--5-5-5-5--3-3-3-3-3-3-3-3-|
|--7--7--7-7--7-7-7-7---7--7--7--7--7-7-7-7--5-5-5-5--5-5-5-5--3-3-3-3---------|

|--------------------------------------------------------------------------|
|----------------------------------------------------------------------1-1-|
|----------------------------------------------------------------------0-0-|
|-10-10-10-9--9-9-9-9--10-10-10-10--9-9-9-9--5-5-5-7--9-9-9-9--3-3-3-5-3-3-|
|--7--7--7-7--7-7-7-7---7--7--7--7--7-7-7-7--5-5-5-5--5-5-5-5--3-3-3-3-3-3-|
|--7--7--7-7--7-7-7-7---7--7--7--7--7-7-7-7--5-5-5-5--5-5-5-5--3-3-3-3-3-3-|


Chorus

|-------------------------------------------------------------------------|
|-------------------------------------------------------------------------|
|-------------------------------------------------------------------------|
|-7--7-7-7--9--9-9-9--10--10-10-10--12--12-12-12--3-3-3-3--5-5-5--5-5-5-5-|
|-7--7-7-7--9--9-9-9--10--10-10-10--12--12-12-12--3-3-3-3--3-3-3--5-5-5-5-|
|-7--7-7-7--9--9-9-9--10--10-10-10--12--12-12-12--3-3-3-3---------5-5-5-5-|

|-----------------------------------------------------------|
|----------------------------3-3-3--------------------------|
|---------------------4-4-4--2-2-2--------------------------|
|-7--7-7-7--2--2-2-2--5-5-5--0-0-0--3-3-3-3--5-5-5--5-5-5-5-|
|-7--7-7-7--2--2-2-2--3-3-3---------3-3-3-3--3-3-3--5-5-5-5-|
|-7--7-7-7--2--2-2-2----------------3-3-3-3---------5-5-5-5-|

|-------0-----------0-----------0-----------0------|
|-----0---0-------0---0-------0---0-------0---0----|
|---5-----------5-----------5-----------5----------|
|-7-----------7-----------7-----------7------------|
|--------------------------------------------------|
|--------------------------------------------------|

Verse

|------------------------------------------------------------------------------|
|------------------------------------------------------------------------------|
|----------------------------------------------------------------------5-5-4-4-|
|-10-10-10-9--9-9-9-9--10-10-10-10--9-9-9-9--5-5-5-7--9-9-9-9--3-3-3-5-3-3-3-3-|
|--7--7--7-7--7-7-7-7---7--7--7--7--7-7-7-7--5-5-5-5--5-5-5-5--3-3-3-3-3-3-3-3-|
|--7--7--7-7--7-7-7-7---7--7--7--7--7-7-7-7--5-5-5-5--5-5-5-5--3-3-3-3---------|

|--------------------------------------------------------------------------|
|----------------------------------------------------------------------1-1-|
|----------------------------------------------------------------------0-0-|
|-10-10-10-9--9-9-9-9--10-10-10-10--9-9-9-9--5-5-5-7--9-9-9-9--3-3-3-5-3-3-|
|--7--7--7-7--7-7-7-7---7--7--7--7--7-7-7-7--5-5-5-5--5-5-5-5--3-3-3-3-3-3-|
|--7--7--7-7--7-7-7-7---7--7--7--7--7-7-7-7--5-5-5-5--5-5-5-5--3-3-3-3-3-3-|

Chorus

|-------------------------------------------------------------------------|
|-------------------------------------------------------------------------|
|-------------------------------------------------------------------------|
|-7--7-7-7--9--9-9-9--10--10-10-10--12--12-12-12--3-3-3-3--5-5-5--5-5-5-5-|
|-7--7-7-7--9--9-9-9--10--10-10-10--12--12-12-12--3-3-3-3--3-3-3--5-5-5-5-|
|-7--7-7-7--9--9-9-9--10--10-10-10--12--12-12-12--3-3-3-3---------5-5-5-5-|

|-----------------------------------------------------------|
|----------------------------3-3-3--------------------------|
|---------------------4-4-4--2-2-2--------------------------|
|-7--7-7-7--2--2-2-2--5-5-5--0-0-0--3-3-3-3--5-5-5--5-5-5-5-|
|-7--7-7-7--2--2-2-2--3-3-3---------3-3-3-3--3-3-3--5-5-5-5-|
|-7--7-7-7--2--2-2-2----------------3-3-3-3---------5-5-5-5-|

Bridge

|-------0-----------0-----------0-----------0----------------------------|
|-----0---0-------0---0-------0---0-------0---0--------------------------|
|---5-----------5-----------5-----------5--------------------------------|
|-7-----------7-----------7-----------7----------------------------------|
|------------------------------------------------------------------------|
|------------------------------------------------------------------------|

|-------0-----------0-----------0-----------0----------------------------|
|-----0---0-------0---0-------0---0-------0---0--------------------------|
|---0-----------0-----------0-----------0--------------------------------|
|-2-----------2-----------2-----------2----------------------------------|
|------------------------------------------------------------------------|
|------------------------------------------------------------------------|

|-------0-----------0-----------0-----------0----------------------------|
|-----0---0-------0---0-------0---0-------0---0--------------------------|
|---5-----------5-----------5-----------5--------------------------------|
|-7-----------7-----------7-----------7----------------------------------|
|------------------------------------------------------------------------|
|------------------------------------------------------------------------|

|-------0-----------0-----------0-----------0----------------------------|
|-----0---0-------0---0-------0---0-------0---0--------------------------|
|---0-----------0-----------2-----------5--------------------------------|
|-2-----------2-----------3----------------------------------------------|
|-------------------------------------5----------------------------------|
|------------------------------------------------------------------------|


|-----------------------------------------------------------------------|
|-----------------------------------------------------------------------|
|-----------------------------------------------------------------------|
|-7-7--7--x-7-----7-7--7--x-7---2-2--2--x-2--x-x-x-x---2-2--2--x-2------|
|-7-7--7--x-7-----7-7--7--x-7---2-2--2--x-2--x-x-x-x---2-2--2--x-2------|
|-7-7--7--x-7-----7-7--7--x-7---2-2--2--x-2--x-x-x-x---2-2--2--x-2------|

|--------------------------------------------------------------------|
|--------------------------------------------------------------------|
|--------------------------------------------------------------------|
|-7-7--7--x-7-----7-7--7--x-7--7-7-7-7---0-0--0--0----5-5--5/7--7----|
|-7-7--7--x-7-----7-7--7--x-7--7-7-7-7---0-0--0--0----3-3--3/5--5----|
|-7-7--7--x-7-----7-7--7--x-7--7-7-7-7---0-0--0--0-------------------|

Chorus

|-------------------------------------------------------------------------|
|-------------------------------------------------------------------------|
|-------------------------------------------------------------------------|
|-7--7-7-7--9--9-9-9--10--10-10-10--12--12-12-12--3-3-3-3--5-5-5--5-5-5-5-|
|-7--7-7-7--9--9-9-9--10--10-10-10--12--12-12-12--3-3-3-3--3-3-3--5-5-5-5-|
|-7--7-7-7--9--9-9-9--10--10-10-10--12--12-12-12--3-3-3-3---------5-5-5-5-|

|-----------------------------------------------------------|
|----------------------------3-3-3--------------------------|
|---------------------4-4-4--2-2-2--------------------------|
|-7--7-7-7--2--2-2-2--5-5-5--0-0-0--3-3-3-3--5-5-5--5-5-5-5-|
|-7--7-7-7--2--2-2-2--3-3-3---------3-3-3-3--3-3-3--5-5-5-5-|
|-7--7-7-7--2--2-2-2----------------3-3-3-3---------5-5-5-5-|