Stop Censorship
 
 

 
 1-9 a b c d e f g h i j k l m n o p q r s t u v w x y z
   Hoobastank - Running Away Tab    

Running Away in standard tuning

E|----------------------------------------------------------------------------------------------
B|----------------------------------------------------------------------------------------------
G|-----------------------------------------------------------4-4-4-4--------------5-5-4-4-------
D|--10-10-10-7---9-9-9-9---10-10-10-7---9-9-9-9----5-5-5-7---5-5-5-5----3-3-3-3---3-3-3-3-------
A|--7--7--7--7---7-7-7-7---7--7--7--7---7-7-7-7----5-5-5-5---5-5-5-5----3-3-3-3---3-3-3-3-------
E|--5--5--5--5---5-5-5-5---5--5--5--5---5-5-5-5----3-3-3-3---3-3-3-3----1-1-1-1---1-1-1-1-------

E|----------------------------------------------------------------------------------------------
B|----------------------------------------------------------------------------------------------
G|----------------------------------------------------------------------------------------------
D|--7-7-7-7---9-9-9-9--10-10-10-10--12-12-12-12---3-3-3-3--3-3-3-3---10-10-10-10--5-5-5-5-------
A|--7-7-7-7---9-9-9-9--10-10-10-10--12-12-12-12---3-3-3-3--3-3-3-3---10-10-10-10--5-5-5-5-------
E|--5-5-5-5---7-7-7-7--8--8--8--8---10-10-10-10---1-1-1-1--1-1-1-1---8--8--8--8---3-3-3-3-------

E|----------------------------------------------------------------------------------------------
B|----------------------------------------------------------------------------------------------
G|-----------------------------------7-7-7-7----------------------------------------------------
D|--7-7-7-7---2-2-2-2---10-10-10-10--7-7-7-7---3-3-3-3---10-10-10-10--5-------------------------
A|--7-7-7-7---2-2-2-2---10-10-10-10--5-5-5-5---3-3-3-3---10-10-10-10--5-------------------------
E|--5-5-5-5---0-0-0-0---8--8--8--8---5-5-5-5---1-1-1-1---8--8--8--8---3-------------------------

All the other parts you can refer to other tabs because they dont use the E string