Stop Censorship
 
 

 
 1-9 a b c d e f g h i j k l m n o p q r s t u v w x y z
   Hoobastank - Same Direction Tab    

Same Direction
Hoobastank

This may not all be correct but it`s fun to play it the way i do:

intro part 1

e----------0--------0-------------0--------0--
B-------3--------3-------------3--------3-----
G-------------4--------4-------------4-------4
D-2-2-2------------------0-0-0----------------
A---------------------------------------------
D---------------------------------------------


e----------0--------0-------------0-----------
B-------3--------3-------------3-----------7-5
G-------------4--------4----------------------
D---------------------------------------------
A-4-4-4------------------3-3-3------5-5-5-----
D---------------------------------------------

intro part 2

e-------3-3-3-------3-3-3-----3-3---------------------------------
B-------3-3-3-------3-3-3-----3-3---------------------------------
G---------------------------------------111111------111111----1111
D-2-2-2-------2-2-2-------2-2-----0-0-0-x-x-x-0-0-0-x-x-x-0-0-x-x-
A-2-2-2-------2-2-2-------2-2-----0-0-0-9-9-9-0-0-0-9-9-9-0-0-9-9-
D-2-2-2-------2-2-2-------2-2-----0-0-0-------0-0-0-------0-0-----


e---------------------------------------------------------------------
B---------------------------------------------------------------------
G-------121212-------121212-----1212--------9-9-9-------111111----1111
D-7-7-7--x-x-x-7-7-7--x-x-x-7-7--x-x-101010-x-x-x-0-0-0-x-x-x-0-0-x-x-
A-7-7-7-101010-7-7-7-101010-7-7-1010-101010-7-7-7-0-0-0-9-9-9-0-0-9-9-
D-7-7-7--------7-7-7--------7-7------101010-------0-0-0-------0-0-----

then:
intro x2

chorus

e-------3-3-3-------3-3-3-----33-------------------------------
B-------3-3-3-------3-3-3-----33-------------------------------
G--------------------------------------111111------111111----11
D-2-2-2-------2-2-2-------2-2----0-0-0-x-x-x-0-0-0-x-x-x-0-0-x-
A-2-2-2-------2-2-2-------2-2----0-0-0-9-9-9-0-0-0-9-9-9-0-0-9-
D-2-2-2-------2-2-2-------2-2----0-0-0-------0-0-0-------0-0---

e-------------------------------------------------------------------
B-------------------------------------------------------------------
G-------------------------------------------------------------------
D-7-7-7-7-7-7-7-7-7-7-7-7-7-7-7-7-1212121212121212-1212121212121212-
A-7-7-7-7-7-7-7-7-7-7-7-7-7-7-7-7-1010101010101010-1212121212121212-
D-7-7-7-7-7-7-7-7-7-7-7-7-7-7-7-7-1010101010101010-1212121212121212- x2

then:
intro x2
chorus x2

interlude

e----------------------------------
B----------------------------------
G----------------------------------
D-1212121212121212-1212121212121212
A-1010101010101010-1212121212121212
D-1010101010101010-1212121212121212

e-------3-3-3-------3-3-3-----33--
B-------3-3-3-------3-3-3-----33--
G---------------------------------
D-2-2-2-------2-2-2-------2-2-----
A-2-2-2-------2-2-2-------2-2-----
D-2-2-2-------2-2-2-------2-2----- x4

e---------------------------------
B---------------------------------
G---------------------------------
D-20222202222220222000002000000020
A-20222202222220222000002000000020
D-20222202222220222000002000000020


e-------------------------------------------------------------------
B-------------------------------------------------------------------
G-------------------------------------------------------------------
D-7-7-7-7-7-7-7-7-7-7-7-7-7-7-7-7-1212121212121212-1212121212121212-
A-7-7-7-7-7-7-7-7-7-7-7-7-7-7-7-7-1010101010101010-1212121212121212-
D-7-7-7-7-7-7-7-7-7-7-7-7-7-7-7-7-1010101010101010-1212121212121212-

e-----------------------------------
B-----------------------------------
G-----------------------------------
D-1212121212121212-1212121212121212-
A-1010101010101010-1212121212121212-
D-1010101010101010-1212121212121212- X2


e----------0--------0-------------0--------0--
B-------3--------3-------------3--------3-----
G-------------4--------4-------------4-------4
D-2-2-2------------------0-0-0----------------
A---------------------------------------------
D---------------------------------------------

e----------------------------------------------------------------------
B----------------------------------------------------------------------
G-------121212-------121212-----1212-----------------------------------
D-7-7-7--x-x-x-7-7-7--x-x-x-7-7--x-x-1212121212121212-1212121212121212-
A-7-7-7-101010-7-7-7-101010-7-7-1010-1010101010101010-1212121212121212-
D-7-7-7--------7-7-7--------7-7------1010101010101010-1212121212121212-

then:
chorus x1

outro

e-------3-3-3-------3-3-3-----3-3-
B-------3-3-3-------3-3-3-----3-3-
G---------------------------------
D-2-2-2-------2-2-2-------2-2-----
A-2-2-2-------2-2-2-------2-2-----
D-2-2-2-------2-2-2-------2-2----- X4

joe_bizkit_rulz@hotmail.com