Stop Censorship
 
 

 
 1-9 a b c d e f g h i j k l m n o p q r s t u v w x y z
   Hoobastank - Stuck Without A Voice Tab    

Drop D tuning
#=Palm Mute


Intro:
Distortion
|--------------------|
|--------------------|
|--------------------|
|--------------------| Play it 3 times
|----5-5----5-5---5--|
|--6------6-----6----|

4th time is weird

Then play the intro 8 times (Heavy Distortion)



Verse:
Clean with Wah Pedal(?)
|----------------------------------------------|
|----------------------------------------------|
|--7---7-5--------------------------7-7-7-7-7--|
|----------7---5---------5---5------7-7-7-7-7--| 1st Verse 3 times
|------------------8-5h8-------8-5--5-5-5-5-5--|
|----------------------------------------------| 2nd Verse 1 time

|---------------------------------------------------|
|---------------------------------------------------|
|--7---7-5------------------------------------------|
|----------7---5---------5---5------0--0--00000000--|
|------------------8-5h8-------8-5--0--0--00000000--|
|-----------------------------------0--0--00000000--|
########



Chorus:
With Heavy Distortion
|---------------------------------------------------------------------------|
|---------------------------------------------------------------------------|
|---------------------------------------------------------------------------|
|--------------------------------------------------------0-0-0--------------|
|-5-7-8-10-12-12----7-8-10-12-12-15----8-10-12-15-15-17--0-0-0--------------|
|--------------------------------------------------------0-0-0--------------|

|--------------------------------------------------------|
|--------------------------------------------------------|
|---------------3----------------------------3---------5-|
|---------------3---3---0--------------------3---3-5-7-3-| Play it 2 times
|---5-5---5-5-5-1---3---0--------5-5---5-5-5-1---3-3-3-3-|
|-6-----6-----------3---0------6-----6-----------3-3-3-3-| 3th Chorus 4 times

|--------------------| |---|
|--------------------| |---|
|--------------------| |---|
|--------------------| Play 3 times... |-0-|
|----5-5----5-5---5--| |-0-|
|--6------6-----6----| Forth time: |-0-|


PLEASE TAKE TIME TO VISIT MY WEBSITE:

Free Backstage Passes To Concerts
http:/concerts.ticketguide.org