Stop Censorship
 
 

 
 1-9 a b c d e f g h i j k l m n o p q r s t u v w x y z
   Hoobastank - Unaffected Tab    

HOOBASTANK

"UNAFFECTED"


INTRO/VERSE
-----------------------------------------------------------
-----------------------------------------------------------
-----------------------------------------------------------
---11-11-11---------9-9-9--11-11-11-------9-9--5-55---5---
-------------7-7-7-------------------7-7----------5-5-----
--------------------------------------------------3-------


-------------------------------
-------------------------------
-------------------------------
--------------------------10---
-----2--7/9--7---------3--8----
---0------------1-0-1----------

PRE-CHORUS
---------------------------------------------------------------------------
---------------------------------------------------------------------------
---4/55--5/77--7/99--9/10-10---10/12-12---12/14-14---14/16-16---16/17-17---
---X-X-X-X-X-X-X-X-X-X-X-X-X-X-X-X-X-X-X-X-X-X-X-X-X-X-X-X-X-X-X-X-X-X-X-X-
---2/33--3/55--5/77--7/8--8----8-/10-10---10/12-12---12/14-14---14/15-15---
---------------------------------------------------------------------------

CHORUS
----------------------------------------------------------------------------------
----------------------------------------------------------------------------------
----------------------------------------------------------------------------------
---55555555--44444444-------------------------------------------------------------
---33333333--22222222--77777777--55555555--2222222222222222--303333333333333333---
-----------------------55555555--33333333--0000000000000000--101111111111111111---

THEN AT 1:50
------------------------------------------------------------------------
------------------------------------------------------------------------
------------------------------------------------------------------------
-------------------------------------7-7-7-7-7-7-7-7--------------------
---7-7-7-7-7-7-7-7--5-5-5-5-5-5-5-5--5-5-5-5-5-5-5-5--3-3-3-3-3-3-3-3---
---5-5-5-5-5-5-5-5--3-3-3-3-3-3-3-3-------------------1-1-1-1-1-1-1-1---

END STRUMMING THIS REPEATEDLY
-------
-------
-------
-------
---7---
---5---




MXBRANDON987