Stop Censorship
 
 

 
 1-9 a b c d e f g h i j k l m n o p q r s t u v w x y z
   Hoobastank - Up %26amp%3B Gone Tab    

#-----------------------------------------------------------------------------#
#-- File created with Instab - http:/www.pconline.com/~smcarey/instab.html --#
#-----------------------------------------------------------------------------#
Author/Artist: Hoobastank
Title: Up & Gone
Album: Hoobastank
Transcribed by: Brandon Rodriguez
Up & Gone
Tuning: Drop D
Note: Hoobastank plays most songs in Open E which is low to high: E-B-E-G#-B-E.
I`m sure this one is no exception. However I have chosen to tab this in drop D.
I`ve given the proper tuning, so if you want to transpose it be my guest.Messing
with one string is easier than messing with four.
So play Up & Gone here in drop D, It will make you more attractive!





---------------------------------------|------------------------------------|-
---------------------------------------|------------------------------------|-
---------------------------------------|------------------------------------|-
-4-4------------4---------------6------|---------4---------------6----------|-
-4-4------4---4---4---4-7-4---4---4---4|---4---4---4---4-7-4---4---4---4----|-
-4-4----4---4-------4-------4-------4--|-4---4-------4-------4-------4------|-


---------------------------------|------------------------------------------|-
---------------------------------|--------10---------------------13---------|-
---------------------------------|---------9---------------------12---------|-
---------2---------------4-------|---------7-------/-------------10---------|-
---2---2---2---2-6-2---2---2---2-|---7---7---7---7-/----10----10---10----10-|-
-2---2-------2-------2-------2---|-7---7-------7---/-10----10---------10----|-


---------------------------------|------------------------------------------|-
---------------------------------|------------------------------------------|-
------------------------4-4-4-3--|------------------------4-4-4-3-----------|-
-2-4-4-2-4--4-4-4-2-4-2-4-4-4-4--|-2-4-4-2-4--4-4-4-2-4-2-4-4-4-4-----------|-
-2-4-4-2-4--4-4-4-2-4-2----------|-2-4-4-2-4--4-4-4-2-4-2-------------------|-
-2-4-4-2-4--4-4-4-2-4-2----------|-2-4-4-2-4--4-4-4-2-4-2-------------------|-


------------------------------------------|-----------------------------------
------------------------------1010/13-13-|-----------------------------------
------------------------------9-9-/12-12-|-----------------------------------
-2-2-2-2-x-x-2-2-2-2--7^7^7^7-7-7-/10-10-|-----------------------------------
-2-2-2-2-x-x-2-2-2-2--7^7^7^7-7-7-/10-10-|-----------------------------------
-2-2-2-2-x-x-2-2-2-2--7^7^7^7-7-7-/10-10-|-----------------------------------


---------------------------------|------------------------------------------|-
---------------------------------|------------------------------------------|-
---------------------------------|------------------------------------------|-
---------4---------------6-------|-------4---------------6------------------|-
---4---4---4---4-7-4---4---4---4-|-4---4---4---4-7-4---4---4---4------------|-
-4---4-------4-------4-------4---|---4-------4-------4-------4--------------|-


---------------------------------|------------------------------------------|-
---------------------------------|--------10-------------------13-----------|-
---------------------------------|---------9-------------------12-----------|-
---------2-------6-------4-------|---------7-----/-------------10-----------|-
---2---2---2---2---2---2---2---2-|---7---7---7---/----10----10----10----10--|-
-2---2-------2-------2-------2---|-7---7-------7-/-10----10----------10-----|-


---------------------------------|------------------------------------------|-
---------------------------------|------------------------------------------|-
----------------------3b1/2------|----------------------3b1/2---------------|-
-2-4-4-2-4--4-4-4-2-4------------|-2-4-4-2-4--4-4-4-2-4---------------------|-
-2-4-4-2-4--4-4-4-2-4------------|-2-4-4-2-4--4-4-4-2-4---------------------|-
-2-4-4-2-4--4-4-4-2-4------------|-2-4-4-2-4--4-4-4-2-4---------------------|-


------------------------------------------|-----------------------------------
------------------------------1010/13-13-|-----------------------------------
------------------------------9-9-/12-12-|-----------------------------------
-2-2-2-2-x-x-2-2-2-2--7^7^7^7-7-7-/10-10-|-4-4---2-2---7-7-7--10-10-10-------
-2-2-2-2-x-x-2-2-2-2--7^7^7^7-7-7-/10-10-|-4-4---2-2---7-7-7--10-10-10-------
-2-2-2-2-x-x-2-2-2-2--7^7^7^7-7-7-/10-10-|-4-4---2-2---7-7-7--10-10-10-------