Stop Censorship
 
 

 
 1-9 a b c d e f g h i j k l m n o p q r s t u v w x y z
   I Can Make A Mess Like Nobodys Business - The Best Happiness Money Can Buy Tab    

Mxtabs [http:/www.mxtabs.net]

Artist: I Can Make a Mess Like Nobody`s Business
Song: The Best Happiness Money Can Buy
Album: Self-Titled
Tabbed by: Dave Kiss


Tuning: 1/2 Step down (Eb Ab Db Gb Bb eb)
.=PALM MUTE
x=MUTE STRING
/=SLIDE
*=HARMONIC
~=LET RING

Guitar, Bass, Steel Guitar (Not Included)


INTRO

GUITAR 1
Eb|----------------------------------------------------------------|
Bb|----------------------------------------------------------------|
Gb|------------0----------0----------0--0------0-------------------| [X4]
Db|--------0----------0----------0----------0----------------------|
Ab|----3----------2----------0-------------------------------------|
Eb|----------------------------------------------------------------|

--------------------------------------------------------------------------------------

VERSE

"Time goes by,
And we watch our lives,
As they`re sadly slipping away.
Alone, we cry."

GUITAR 1
Eb|----------------------------------------------------------------|
Bb|----------------------------------------------------------------|
Gb|------------0----------0----------0--0------0-------------------| [X6]
Db|--------0----------0----------0----------0----------------------|
Ab|----3----------2----------0-------------------------------------|
EB|----------------------------------------------------------------|

--------------------------------------------------------------------------------------

CHORUS

"So follow that tune quickly
Or you`ll lose the melody you never hear
When you were young you didn`t care.
It`s the one that stole your fathers pride,
That mighty mighty dollar sign.
These are the things that matter now,
So sing along and be..."

GUITAR 1

G Em7 Cadd9 D/A
Eb|-----3-------------3-------------3-------------2----------------------|
Bb|-----3-------------3-------------3-------------3----------------------|
Gb|-----0-------------0-------------0-------------2----------------------| [X2]
Db|-----0-------------2-------------2-------------0----------------------|
Ab|-----2-------------2-------------3-------------0----------------------|
Eb|-----3-------------0-------------x-------------x----------------------|

----------------------------------------------------------------------------------------

VERSE 2

"Prepared to jump,
When the ship has sunk,
And you`re slowly watching it drown.
Alone, you cry."

GUITAR 1
Eb|----------------------------------------------------------------|
Bb|----------------------------------------------------------------|
Gb|------------0----------0----------0--0------0-------------------| [X6]
Db|--------0----------0----------0----------0----------------------|
Ab|----3----------2----------0-------------------------------------|
Eb|----------------------------------------------------------------|

BASS
Gb|----------------------0--------------------------|
Db|--------------0--2------2--0---------------------| [X4]
Ab|----------2---------------------2----------------|
Eb|------3------------------------------------------|

---------------------------------------------------------------------------------------

CHORUS

"So follow that tune quickly
Or you`ll lose the melody you never hear
When you were young you didn`t care.
It`s the one that stole your fathers pride,
That mighty mighty dollar sign.
These are the things that matter now,
So sing along and be prepared."

GUITAR 1

G Em7 Cadd9 D/A
Eb|-----3-------------3-------------3-------------2----------------------|
Bb|-----3-------------3-------------3-------------3----------------------|
Gb|-----0-------------0-------------0-------------2----------------------| [X2]
Db|-----0-------------2-------------2-------------0----------------------|
Ab|-----2-------------2-------------3-------------0----------------------|
Eb|-----3-------------0-------------x-------------x----------------------|

----------------------------------------------------------------------------------------

BRIDGE

GUITAR 1
Eb|----------------------------------------------------------------|
Bb|----------------------------------------------------------------|
Gb|------------0----------0----------0--0------0-------------------| [X4]
Db|--------0----------0----------0----------0----------------------|
Ab|----3----------2----------0-------------------------------------|
Eb|----------------------------------------------------------------|

----------------------------------------------------------------------------------------

VERSE 3

"Maybe we care about too much
Time we lost and in spite we run,
But I`m wrong, but you know I`m wrong."

GUITAR 1
Eb|--------------------------------------------------------------------|
Bb|--------------------------------------------------------------------|
Gb|------------0----------0----------0--0------0-----------------------| [X6]
Db|--------0----------0----------0----------0--------------------------|
Ab|----3----------2----------0-----------------------------------------|
Eb|--------------------------------------------------------------------|

BASS
Gb|----------------------0----------------------------|
Db|--------------0--2------2--0-----------------------| [X6]
Ab|----------2---------------------2------------------|
Eb|------3--------------------------------------------|

Rate!!