Stop Censorship
 
 

 
 1-9 a b c d e f g h i j k l m n o p q r s t u v w x y z
   I Can Make A Mess Like Nobodys Business - Timshel Tab    

I Can Make A Mess Like Noby`s Business - Timshel

Song Structure (Listen to song for exact tempo)

Verse x 2 (intro)
Verse x 4
Bridge 1 x 1
Verse x 4
Bridge x 1
Chorus x 4
Bridge 2 x 1
Verse x 4
Bridge 1 x 1
Chorus x 4
Bridge 3 x 1
Outro x 1

Verse

Eb|--------3-----------------3-----------------3-----------------3---------|
Bb|----3------3--------3--------3--------3--------3--------3--------3------|
Gb|--------------0-----------------0-----------------0-----------------0---|
Db|------------------------------------------------------------------------|
Ab|-----------------------------------------------------2-----2------------|
Eb|-3----3----------2-----2-----------0-----0------------------------------|


Eb|--------3-----------------3-----------------3-----------------3---------|
Bb|----3------3--------3--------3--------3--------3--------3--------3------|
Gb|--------------0-----------------0-----------------0-----------------0---|
Db|------------------------------------------------------------------------|
Ab|-3----3----------3-----3-----------3------3----------3-----3------------|
Eb|------------------------------------------------------------------------|


Bridge 1

Eb|--------2-----------------2-----------------2-----------------2---------|
Bb|----3------3--------3--------3--------3--------3--------3--------3------|
Gb|--------------2-----------------2-----------------2-----------------2---|
Db|-0----0----------0-----0-----------0------0----------0-----0------------|
Ab|------------------------------------------------------------------------|
Eb|------------------------------------------------------------------------|

Eb|--------3-----------------3---------------------------------------------|
Bb|----3------3--------3--------3------------------------------------------|
Gb|--------------0-----------------0---------------------------------------|
Db|------------------------------------------------------------------------|
Ab|-3----3----------3-----3-----------3------------------------------------|
Eb|------------------------------------------------------------------------|


Chorus (Listen to song for strumming pattern)

Eb|-3---------------3-----------------3------------------2-----------------|
Bb|-3---------------3-----------------3------------------3-----------------|
Gb|-0---------------0-----------------0------------------2-----------------|
Db|-0---------------2-----------------2------------------0-----------------|
Ab|-2---------------2-----------------3------------------0-----------------|
Eb|-3---------------0------------------------------------------------------|


Bridge 2

Eb|-3---------------|
Bb|-3---------------|
Gb|-0---------------|
Db|-0---let ring----|
Ab|-2---------------|
Eb|-3---------------|


Bridge 3 (Listen to song for strumming pattern)

Eb|-3---------------------------------2------------------------------------|
Bb|-3---------------------------------3------------------------------------|
Gb|-0---------------------------------2------------------------------------|
Db|-2---------------------------------0------------------------------------|
Ab|-3---------------------------------0------------------------------------|
Eb|------------------------------------------------------------------------|


Outro (Listen to song for strumming pattern)

Eb|-3---------------|
Bb|-3---------------|
Gb|-0---------------|
Db|-0---------------|
Ab|-2---------------|
Eb|-3---------------|

tabbed by d3l0us3d