Stop Censorship
 
 

 
 1-9 a b c d e f g h i j k l m n o p q r s t u v w x y z
   Iron Maiden - From Here To Eternity Tab    

From Here To Eternity Solo # 2 Janiks


W=Push Down Whammy Bar
P=Pull of

Back Round For Solo
e-------------------------------|
B-------------------------------|
G-------------------------------|
D-9-7-5-7--9----9-12-5--7-9-----|
A-7-5-3-5--7----7-10-3--5-7-----|
E-------------------------------|

e-------------------------------------15-14-12------------------------------------|
B-----------------------------------------------15-14-12--------------------------|
G14~-w-w-p12w-w-w-w-14~-W-W-p12-w-w-w-----------------------15--12-w-w-w-w-w-w-w--|
D---------------------------------------------------------------------------------|
A---------------------------------------------------------------------------------|
E---------------------------------------------------------------------------------|

e14-14-14-14-17---14-14-14-14-14--17----14-14-14-14-17----14-14-14-14-14-17----14-14-14-14-14-17---14-14-14-14-14-17------17-14-------17-15-14----------------------------|
B---------------16-------------------16----------------16-------------------16-------------------16------------------16---------16-------------17-15-14-------------------|
G--------------------------------------------------------------------------------------------------------------------------------------------------------17-15-w-w-w------|
D-------------------------------------------------------------------------------------------------------------------------------------------------------------------------|
A-------------------------------------------------------------------------------------------------------------------------------------------------------------------------|
E-------------------------------------------------------------------------------------------------------------------------------------------------------------------------|