Stop Censorship
 
 

 
 1-9 a b c d e f g h i j k l m n o p q r s t u v w x y z
   Joel Turner - These Kids Tab    

These Kids
Joel Turner & The Modern Day Poets

transcribed by Damian Smith (pondlife87@hotmail.com)

Intro:
C11+ D Em7
e|---------------------------------------------------------------------|
B|-------3------3----------3-----3----------3-----1------0h1p0-----0---|
G|-----0----0------------0---0------------0---0------0---------0-------|
D|---4--------4--------4-------4--------2-------2------2---------2-----|
A|-3---------------3h5-------------------------------------------------|
E|----------------------------------0----------------------------------|

C11+ D Em9
e|------------------------------------2-------2------0---------5--------|
B|---------3-----3----------3-----3---3--3------3-------3---------------|
G|-------0---0------------0---0------------0------0-------0-------------|
D|-----4-------4--------4-------4---------------------------------------|
A|-3----------------3h5-------------------------------------------------|
E|------------------------------------0---------------------------------|

Verse:
C11+ D Em7 G/F#
e|-----------------------------------------------------------------------|
B|-------3------3----------3------3---------3------3--------3--------3---|
G|-----0----0------------0----0-----------0------0--------0--------0-----|
D|---4--------4--------4--------4-------2------2--------2--------0-------|
A|-3-----------------5---------------------------------------------------|
E|------------------------------------0---------------0--------2---------|

Solo

Electric distorted joins with:
C5 D5 E5 E5 F#5
e|-----------------------------------------------------------------------|
B|-----------------------------------------------------------------------|
G|-----------------------------------------------------------------------|
D|---5----------------7--------------------------------------------------|
A|---3----------------5----------------2---------------2-------4---------|
E|-------------------------------------0---------------0-------2---------|