Stop Censorship
 
 

 
 1-9 a b c d e f g h i j k l m n o p q r s t u v w x y z
   John Fogerty - Hot Rod Heart Tab    

Hod Rod Heart

By: John Fogerty


Intro
G-----------------------------------------------------------------------
D-----------------------------------------------------------------------
A-----------------------------------------------------------------------
E---0--0--0--0--0--0--0--0--0--0--0--0--0--0--0--0--0--0--0--0--0--0----


Main Verse
G-----------------------------------------------------------------------
D-----------------------------------------------------------------------
A-----------------------------------------------------------------------
E---0--0--0--0--------0--0--0--0--0--0--0--0--0--0--0--0--0--0--0--0----



G-----------------------------------------------------------------------
D-----------------------------------------------------------------------
A-----------------------------------------------------------------------
E---0--0--0--0--0--0--0--0--0--0--0--0--0--0--0--0--0--0--0--0--7--7----



G-----------------------------------------------------------------------
D-----------------------------------------------------------------------
A-----------------------------------------------------------------------
E---7--7--7--7--7--7--7--7--7--7--0--0--0--0--0--0--0--0--0--0--0--0----



G-----------------------------------------------------------------------
D-----------------------------------------------------------------------
A-----------------------------------------------------------------------
E---5--5--5--5--5--5--5--5--5--5--5--5--5--5--5--5--5--5--5--5--5--5----


Chorus
G-----------------------------------------------------------------------
D-----------------------------------------------------------------------
A---------2-----------------------------------------------0--0--0--0----
E---5--5--------------0--0--0--0--0--0--0--0--0--0--0--0----------------



G-----------------------------------------------------------------------
D-----------------------------------------------------------------------
A---0--0--0--0--0--0--0--0--------------------------------------0--0----
E---------------------------0--0--0--0--0--0--0--0--0--0--0--0----------



G-----------------------------------------------------------------------
D-----------------------------------------------------------------------
A---0--0--0--0--0--0--0--0--0--0--2--2--2--2--2--2--2--2--2--2--2--2----
E-----------------------------------------------------------------------


Solo
G-----------------------------------------------------------------------
D-----------------------------------------------------------------------
A-----------------------------------------------------------------------
E---------0--0--0--0--0--0--0--0--0--0--0--0--0--0--0--0--0--0--0--0----



G-----------------------------------------------------------------------
D-----------------------------------------------------------------------
A-----------------------------------------------------------------------
E---0--0--0--0--0--0--0--0--0--0--0--0--0--0--0--0--7--7--7--7--7--7----



G-----------------------------------------------------------------------
D-----------------------------------------------------------------------
A-----------------------------------------------------------------------
E---7--7--7--7--7--7--0--0--0--0--0--0--0--0--0--0--0--0--5--5--5--5----



G-----------------------------------------------------------------------
D-----------------------------------------------------------------------
A---------------------------2--2--2--2--2--2--2--2--2--2--2--2----------
E---5--5--5--5--5--5--5--5----------------------------------------------


Ending (Ride this until the end)
G-----------------------------------------------------------------------
D-----------------------------------------------------------------------
A-----------------------------------------------------------------------
E---------------0--0--0--0--0--0--0--0--0--0--0--0--0--0--0--0--0--0----



G-----------------------------------------------------------------------
D-----------------------------------------------------------------------
A-----------------------------------------------------------------------
E---0--0--0--0--0--0--0--0--0--0--0--0--0--0--0--0--0--0--0--0--0--0----



G-----------------------------------------------------------------------
D-----------------------------------------------------------------------
A-----------------------------------------------------------------------
E---0--0--0--0--0--0--0--0--0--0--0--0--0--0--0--0--0--0--0--0--0--0----



G-----------------------------------------------------------------------
D-----------------------------------------------------------------------
A-----------------------------------------------------------------------
E---0--0--0-------------------------------------------------------------




========================================================================
== TABLATURE EXPLANATION ==
========================================================================

---------- ---------- ----t---
----5h8--- Hammeron ----(8)--- Ghost ----6--- Tap
---------- ---------- Note --------
----5p8--- Pulloff ---------- --------

---------- ---------- -----p--
----5/8--- Slide Up -----x---- Dead -----7-- Pop
---------- ---------- Note --s-----
----58--- Slide Down ---------- --5----- Slap

---------- ||------|| Repeat --------
----5~~~-- Vibrato ||*----*|| ---5^--- Bend
---------- ||*----*|| --------
---------- ||------|| --------

---------- ---------- --------
-4:------- Time ---------- --------
-4:------- Signature ---------- --------
---------- ---------- --------

Rhythm:
w = whole note W = dotted whole
h = half note H = dotted half
q = quarter note Q = dotted quarter
e = eighth note E = dotted eighth
s = sixteenth note S = dotted sixteenth
t = 32nd note T = dotted 32nd
x = 64th note X = dotted 64th
^ = triplet

Enjoy!