Stop Censorship
 
 

 
 1-9 a b c d e f g h i j k l m n o p q r s t u v w x y z
   Jorn Vankrunkelsven - Running Tab    

This is made by Jorn Vankrunkelsven. I am 15 years old and I make songs. This song belongs to my second band. My first is Evil Minded! We don`t yet have a name!
SKATE_OR_DIE8@msn.com

Chorus
E|------------------------------------------------------------------------------
B|------------------------------------------------------------------------------
G|------------------------------------------------------------------8-8-10-10---
D|--10-10-10-10-10-10-10-10-13-13-13-13-13-13-13-13-8-8-8-8-8-8-8-8-6-6-8--8----
A|--8--8--8--8--8--8--8--8--11-11-11-11-11-11-11-11-6-6-6-6-6-6-6-6-------------
e|------------------------------------------------------------------------------

Verse - Only bass and drums
E|-------------------------------------------------------------------
B|-------------------------------------------------------------------
G|-------------------------------------------------------------------
D|----------------------------------------------------------6-6-8-8--
A|--8-8-8-8-8-8-8-8-11-11-11-11-11-11-11-11-6-6-6-6-6-6-6-6----------
e|-------------------------------------------------------------------

Bridge
E|------------------
B|------------------
G|------------------
D|--10---13----8----
A|--8----11----6----
e|------------------

Solo part + solo
E|--------------------------------
B|--------------------------------
G|--10-10-10-10-10--9-9--7-7-7----
D|--10-10-10-10-10--9-9--7-7-7----
A|--8--8--8--8--8---7-7--5-5-5----
e|--------------------------------

ORDER:
______

Chorus x4 (after 2nd time, drums begin)
Verse x4 (only bass and drums)
Bridge x1 (after 3th time verse)
Chorus x4
Solo part x8 (+guitarsolo)
Chorus x8 (after 4th time, short solo)

Some of these words are wrong spelled or writed. I live in Belgium and I don`t know that well English but I`m trying to! If you don`t understand some things just ask.
Mail: skate_or_die8@msn.com