Stop Censorship
 
 

 
 1-9 a b c d e f g h i j k l m n o p q r s t u v w x y z
   Just Born - Out Of This Place Tab    

Just Born

Out of this place
tabbed by Payday

Drop d tuning

Intro (4x)

E---0-0-0-0-0-0-0-0-0--0--0--0--0--0--0--0
B---5-5-5-7-7-7-8-8-8-10-10-10-10-10-10-10
G-----------------------------------------
D-----------------------------------------
A-----------------------------------------
D-----------------------------------------

Verse 1 (4x)

E-------------------2---------------------
B--------------------3--------------------
G--------------------------------------7-9
D---222-22222-22220----222-22222-22220----
A---222-22222-22220----222-22222-22220----
D---222-22222-22220----222-22222-22220----

Pre Chorus (2x)

E----------------
B----------------
G----------------
D---2---5---0---7
A---2---5---0---7
D---2---5---0---7

Chorus (4x)

E------------------------------------
B------------------------------------
G------------------------------------
D------------------------------------
A---222222-555555-000000-7777-7777532
D---222222-555555-000000-7777-7777532

Intro (4x) same as above

Verse 2 (4x) same as verse 1

Pre-Chorus (2x) same...

Chorus (4x) same...


Bridge (1x)

E---------------------------------------------------------------------
B---------------------------------------------------------------------
G---------------------------------------------------------------------
D---222-22222-22222--222-22222-22222--222-22222-22222--222-22222-22222
A---222-22222-22222--222-22222-22222--222-22222-22222--222-22222-22222
D---222-22222-22222--222-22222-22222--222-22222-22222--222-22222-22222

Outro (1x)

E---0-0-0-0-0-0-0-0-0--0--0---0----0-----
B---5-5-5-7-7-7-8-8-8-10-10--10---10-----
G---------------------------------------- Let Ring
D----------------------------------------
A----------------------------------------
D----------------------------------------

Order of song

Intro (4x)
Verse 1 (4x)
Pre-Chorus (2x)
Chorus (4x)
Intro (4x)
Verse 2 (4x)
Pre-Chorus (2x)
Chorus (4x)
Bridge (1x)
Outro (1x)