Stop Censorship
 
 

 
 1-9 a b c d e f g h i j k l m n o p q r s t u v w x y z
   Led - Hellbound Tab    

Song: Hellbound
Band: Led
Tabbed By: Eric Spriggs

Intro P.M. open them Playes first part 8x
E-----------------------I--------I I-----------------------I
B-----------------------I--------I I---------2-----2------I
G-----------------------I--------I 4X I--------2-----2------I 4X
D--------2-----2-------I--3-5---I I---0-0-0-0-0-0-0-0-I
A---0-0-0-0-0-0-0-0--I--5-3---I I----------------------I
E-----------------------I---------I I----------------------I

Verse 1
E------------------------------------------------------I
B---------------------7-------------------------------I
G---3-5-5-7---5-7-9-7-7-5---5-4-2-3---------------I
D---5-3-5-7---5-7-9-5-7-5---5-4-2-3 2X -5-2---I
A--------3-5---3-5-7---5-3---3-2-0-1--------5-2---I
E-----------------------------------------------3-0---I

Chorus
E-------------------------------------------------------------------------I
B-------------------------------------------------------------------------I
G-------------------------------- 4X ----------------------------------I
D------------5------3--------3-5------------------7------5--------5-7--4X
A---0-0-0-0-3-0-0-5-0-0-0-5-3---------0-0-0-0-5-0-0-7-0-0-0-7-5---I
E--------------------------------------------------------------------------I

Verse 2
E------------------------------------------------------I
B---------------------7-------------------------------I
G---3-5-5-7---5-7-9-7-7-5---5-4-2-3---------------I
D---5-3-5-7---5-7-9-5-7-5---5-4-2-3 2X -5-2---I
A--------3-5---3-5-7---5-3---3-2-0-1--------5-2---I
E-----------------------------------------------3-0---I

Chorus
E-------------------------------------------------------------------------I
B-------------------------------------------------------------------------I
G-------------------------------- 4X ----------------------------------I
D------------5------3--------3-5------------------7------5--------5-7--4X
A---0-0-0-0-3-0-0-5-0-0-0-5-3---------0-0-0-0-5-0-0-7-0-0-0-7-5---I
E--------------------------------------------------------------------------I

Verse 3
E------------------------------------------------------I
B---------------------7-------------------------------I
G---3-5-5-7---5-7-9-7-7-5---5-4-2-3---------------I
D---5-3-5-7---5-7-9-5-7-5---5-4-2-3 2X -5-2---I
A--------3-5---3-5-7---5-3---3-2-0-1--------5-2---I
E-----------------------------------------------3-0---I

Chorus
E-------------------------------------------------------------------------I
B-------------------------------------------------------------------------I
G-------------------------------- 4X ----------------------------------I
D------------5------3--------3-5------------------7------5--------5-7--4X
A---0-0-0-0-3-0-0-5-0-0-0-5-3---------0-0-0-0-5-0-0-7-0-0-0-7-5---I
E--------------------------------------------------------------------------I

Verse 4
E------------------------------------------------------I
B---------------------7-------------------------------I
G---3-5-5-7---5-7-9-7-7-5---5-4-2-3---------------I
D---5-3-5-7---5-7-9-5-7-5---5-4-2-3 2X -5-2---I
A--------3-5---3-5-7---5-3---3-2-0-1--------5-2---I
E-----------------------------------------------3-0---I


Outro P.M. open
E-----------------------I--------I
B-----------------------I--------I
G-----------------------I--------I 5X NO RHYTHEM ON OUTRO
D--------2-----2-------I--3-5---I
A---0-0-0-0-0-0-0-0--I--5-3---I
E-----------------------I---------I