Stop Censorship
 
 

 
 1-9 a b c d e f g h i j k l m n o p q r s t u v w x y z
   Led - Star Spangled Banner Tab    

Star Spangled Banner
written by Francis Scott Key
Tabbed By Eric Spriggs

E---------------------------------7---------------------11-9--I
B--------------------12--14-14-------------------------------I
G--11--8----9--11-------------------8-10-11--11-11--------I
D---------9----------------------------------------------------I
A--------------------------------------------------------------I
E--------------------------------------------------------------I

E--7------------------------------------------------------------I
B-----11-9-11-12-12------------------------12-14-14--------I
G----------------------11-8---11-8----8-11-------------------I
D----------------------------9-------9--------------------------I
A----------------------------------------------------------------I
E----------------------------------------------------------------I

E--7------------------11-9-7---------------------------------I
B------------------------------11-9-11-12-12----------------I
G----8-10-11-11-11----------------------------11-8---------I
D-------------------------------------------------------9------I
A--------------------------------------------------------------I
E--------------------------------------------------------------I

E--9-9-11-12-14-14-12-11-9-11-12-12-12-11--------------I
B--------------------------------------------------------------I
G--------------------------------------------------------------I
D--------------------------------------------------------------I
A--------------------------------------------------------------I
E--------------------------------------------------------------I

E--9-7------------------------------------------------9-11-12-I
B-------11-9-11-12----------------12-12-11/9-9-9-----------I
G---------------------8-10-11--11-----------------------------I
D----------------------------------------------------------------I
A----------------------------------------------------------------I
E----------------------------------------------------------------I

E--------------------9-11-12-14-7-9-11--12-9-----------------I
B--12-11--------12------------------------------12~~~--------I
G---------11-11-------------------------------------------------I
D-----------------------------------------------------------------I
A-----------------------------------------------------------------I
E------------------------------------------------------------------I

This is my version of this song I like it and i Think you will to