Stop Censorship
 
 

 
 1-9 a b c d e f g h i j k l m n o p q r s t u v w x y z
   Lipps Inc - Funky Town Tab    


|---------------------------13-12-----|
|---13--13--11--13-------13-------13--|
|------------------12-12--------------|
|-------------------------------------|
|-------------------------------------|
|-------------------------------------|


|--------------------8-7-----|
|---8--8--6--8-----8-----8---|
|--------------7-7-----------|
|----------------------------|
|----------------------------|
|----------------------------|


|--------------------------------------------------|
|--------------------------------------------------|
|---12--12-12---12--12-12---12--12-12---12--12-12--|
|---12--12-12---12--12-12---12--12-12---12--12-12--|
|---10--10-10---10--10-10---10--10-10---10--10-10--|
|--------------------------------------------------|


|------------------------------|
|------------------------------|
|---14-14-14-14-13-14-------|
|---14-14-14-14-13-14-------|
|---12-12-12-12-11-12-------|
|------------------------------|

there we go! thats all u have to know... all u have to do is to lesten to
the song and u`ll get every thing...trust me.