Stop Censorship
 
 

 
 1-9 a b c d e f g h i j k l m n o p q r s t u v w x y z
   Llama Farmers - Get The Keys And Go Tab    

=========================================
LLAMA FARMERS - GET THE KEYS AND GO
=========================================
INTRO
|---------------------------------|
|---------------------------------|
|---------------------------------| X2
|-----------------------------666-|
|-777-666-777-666-999-777-666-----|
|---------------------------------|

=========================================
RIFF A
GTR 1
|---------------------------------------|
|---------------------------------------|
|---------------------------------------|
|-----------------------------------666-|
|-777-666-777-666--9-9-9-777--6-6-6-----|
|---------------------------------------|

GTR 2
|---------------------------------------|
|-----------------------------------999-|
|-999-888-999-888-111111-999-111111-888-|
|-999-888-999-888-111111-999-111111-666-|
|-777-666-777-666--9-9-9-777--9-9-9-----|
|---------------------------------------|

=========================================
FILL
|------7---|
|-5555---5-|
|----------|
|----------|
|----------|
|----------|

=========================================
RIFF B
|---------------------------------------|
|---------------------------------------|
|-666666666666-111111111111111111111111-|
|-666666666666-111111111111111111111111-|
|-444444444444--9-9-9-9-9-9-9-9-9-9-9-9-|
|---------------------------------------|

=========================================
RIFF C
ACOUSTIC GUITAR
|--------------------------------------|
|-999999999999999999999999999999999999-|
|-999999999999999999888888888888888888-|
|-999999999999999999666666666666666666-|
|-777777777777777777-------------------|
|--------------------------------------|

=========================================
INTRO
RIFF A X6
RIFF B
RIFF A
RIFF B
RIFF A X6
RIFF B
RIFF A
RIFF B
RIFF A X2
RIFF C X6
RIFF A X6
=========================================
FILL PLAYED EVERY NOW AND THEN
=========================================