Stop Censorship
 
 

 
 1-9 a b c d e f g h i j k l m n o p q r s t u v w x y z
   Lok - Kompanjoner Tab    


On this song you can play in normaltuning :D

Verse/Chorus
e---------------------------------
B---------------------------------
G-----5---5-----5---5-----7-------
D-----5---5-----5---5-----7-7-7-7-
A-3-3-3-3-3-3-3-3-3-3-3-3s5-7-7-7-
E---------------------------5-5-5-


"Vi river, vi kliver..." part
e-----------------
B-----------------
G-----------------
D-----------------
A-----------------
E-1-1-2-2-3-3-4-4-

Bridge:
e-----------------------
B-----------------------
G-7-7-----5-(5)---------
D-7-7-7-7-5-(5)---------
A-5-5-7-7-3-(3)---------
E-----5-5---------------