Stop Censorship
 
 

 
 1-9 a b c d e f g h i j k l m n o p q r s t u v w x y z
   Lok - Staden G%C3%B6teborg Tab    

This is from the live CD Blästrad Levande without hardcore superstars

They don`t have normal tuning but you can play it that way

Verse
E--------------------------------------------------
B-------------------------------------------------
G-------------------------------------------------
D-------------------------------------------------
A-10/7-7-7-7-7-7-6/7-7-7-7-7-7-10-10-10-10-7-7-7-7
E-8-/5-5-5-5-5-5-4/5-5-5-5-5-5-8--8--8--8--5-5-5-5

pre chorus
E-----------
B-----------
G-----------
D-----------
A-3-3-3-3-3-
E-1-1-1-1-1-

chorus
E-------------------------------
B-------------------------------
G-------------------------------
D-----7-7-7-7-7-7-----7-7-7-7-7-
A-----7-7-7-7-7-7-----7-7-7-7-7-
E-4/5-5-5-5-5-5-5-4/5-5-5-5-5-5-