Stop Censorship
 
 

 
 1-9 a b c d e f g h i j k l m n o p q r s t u v w x y z
   Lok - Tommys Ponny Tab    

Bass intro:
E-3-5-5-5-5-5-5-3-0

Guitar Verse
E----------------------------
B----------------------------
G----------------------------
D----------------------------
A-5-7-7-7-7-7-7-7-7-7-7-7-5-2
E-3-5-5-5-5-5-5-5-5-5-5-5-3-0

Chorus (?)

E---------------------------
B---------------------------
G---------------------------
D---------------------------
A-----------3---------------
E-5-5-3-5-5--5-5-3-5-0/3----

E---------------------------
B---------------------------
G---------------------------
D---------------------------
A-----------3--------3--7---
E-5-5-3-5-5--5-5-3-5--5---5-


Cartwrigth part
E--------------------------------
B--------------------------------
G--------------------------------
D-----------5--5-7---------5-7-5-
A-7-7-7-7-7-3--3-5-7-7-7-7-3-5-3-
E-5-5-5-5-5--5-----5-5-5-5-------

Outro solo
E-5-5-5-5-5-5-5-5-8-8-8-8-8-8-8-8-10-10-10-10-11-11-11-10-10-10---------
B-----------------------------------------------------------------------
G-----------------------------------------------------------------------
D-----------------------------------------------------------------------
A-----------------------------------------------------------------------
E-----------------------------------------------------------------------