Stop Censorship
 
 

 
 1-9 a b c d e f g h i j k l m n o p q r s t u v w x y z
   Mad Season - Long Gone Day Tab    

LONG GONE DAY by Mad Season

-This was a bitch but I finally got it.

Intro/Verse

g--9--9-9-9-9-7--7-7-7--9-9-9-12-9-7--7-7-7--

d--9--9-9-9-9-7--7-7-7--9-9-9-12-9-7--7-7-7--

a--------------------------------------------

e--------------------------------------------



Pre-Chorus

g-12--12-12-12-12--11--

d-10--10-10-10-10---9--

a----------------------

e----------------------



ChorusOne of the verses in the end "Lord its a storm and I`m headed.."

g------------------------

d-7--7-7-7-7--3-3-3-5-5-5

a------------------------

e------------------------



BridgeSaxophone Solo

g--------------------

d--------------------

a-9-9/7--------------

e-------5--7---------



I don`t know the song pattern, but with that all done, it should be

pretty easy to follow



Currently I am working on:

We`re All Alone

X-ray Mind

and

Lifeless Dead



When I get them done, I`ll be sure to send them to ya.



Justin

KoRKWoRM CYANIDE bass player Justin Mackovyak, jmm3@twd.net