Stop Censorship
 
 

 
 1-9 a b c d e f g h i j k l m n o p q r s t u v w x y z
   Mad Season - X-Ray Mind Tab    

Transcribed by Jani Mattinen (sebastion@ix.netcom.com)

Standard tuning
Intro:

e:-------------------------------------------|
B:-------------------------------------------|
G:-------------------------------------------|
D:---~~~~~-----~~~~~-------------------------|
A:-/7-----/105-----3--------~~~~~~~~~~~~~~-|
E:--------------------------5---------------| x 2

Cool Jimi-lick:

e:--------------------------|-------------------------|
B:--/10-8---10--------------|--/10-8----10-----------|
G:--------9--------7br5---0-|--------9----------------|
D:----------------------7---|-------------------------|
A:--------------------------|-------------------------|
E:--------------------------|-------------------------|

Can`t remember the verse part (Starts in A, I think).
Oh, well... :)

Cheers, SmegHead/Jani